Relient K - More Than Useless Chords & Tabs

 

More Than Useless Chords & Tabs

Relient K Chords & Tabs

Version: 1 Type: Bass Tab 1 rating
1 star 2 stars 3 stars 4 stars 5 stars
comments

More Than Useless Bass Tab

   
Artist: Relient k
Album: mmhmm
Date: No clue        This is a really cool song
                     Hope you like this tab.

Standard tuning E-A-D-G
Intro
G------------------------------]
D------------------------------]
A-8888-88-------6666-66--------]
E--------4444-44-------6-66666-]

Verse 1
G-----------------------------------]
D-----------------------------------]
A-6666666666666666------------------]
E-----------------88888888-44444444-]
[ Tab from: http://www.guitartabs.cc/tabs/r/relient_k/more_than_useless_btab.html ]
Pre-Chorus
G--------------------      --------------------------------------]
D--------------------      --------------------------------------]
A--6-6---------------  2x  -66666666-----------------------------]  2x
E-----6-6--8-8--4-6--      -----------66666666-88888888-44444444-]

But than you assure me...
G------------]
D------------]
A-6-666------]
E------88-44-]



Chorus
G---------------------------------]
D---------------------------------]
A-6-6-6666------------------------]
E---------6-6-6666-8-8-88888-44-4-]

Bridge
G--------------------------------------------------]
D--------------------------------------------------]
A-6-------------66666666---------------------------]
E----8---4--------------66666666-88888888-44444444-]

Outro
G---------------------------------------------------------]
D---------------------------------------------------------]
A-666666666666666666666666666666--6666666666666--6~~~~~~~-]
E-------------------------------44-------------44---------]

~ring note


That's it, Plaese rate!!!!!!!!!!
Comments