Relient K - May The Horse Be With You Chords & Tabs

 

May The Horse Be With You Chords & Tabs

Relient K Chords & Tabs

Version: 1 Type: Bass Tab 0 ratings
1 star 2 stars 3 stars 4 stars 5 stars
comments

May The Horse Be With You Bass Tab

May the horse be with you by Relient K
Standard Tuning

(Intro)
G:------------------------|
D:7------------4-4-4-4----|  x6
A:--7--5--5(8)---------7-7|
E:------------------------|

G:------------------------|
D:7-----------------------|
A:--5--------5-5-5-5-7-7--|
E:----7--7(8)-------------|

G:---------------------|
D:---------------------|
A:-----5(8)-------5-7--|
E:5(8)------7(8)------5|

G:----------------------------------|
D:----------------------------------|
A:5-5-5-5--5-5-5-5--5-5-5-5--5-5-5-5|
E:----------------------------------|

G:----------------------------|
D:----------------------------|  x2
A:-----5(8)-------------------|
E:7(8)------5--0-0-0-0-0-0-0-0|

G:----------------------------------------|
D:----------------------------------------|
A:5-5-5--7-7-7-----------6-6-6--5-5-5-5--7|
E:--------------5-5-5-5-------------------|
[ Tab from: http://www.guitartabs.cc/tabs/r/relient_k/may_the_horse_be_with_you_btab.html ]
(Chorus) May the horse be with you...
G:-----------------------------------------------|
D:----4-------------------4----------------------|
A:--7---4--5-5-5-5--7---7---4--5-5-5-5--7-7-7-7--|
E:5-------------------5-------------------------5|

G:------------------------|
D:7------------4-4-4-4----|  x2
A:--7--5--5(8)---------7-7|
E:------------------------|

G:------------------------|
D:7-----------------------|  x2
A:--5--------5-5-5-5-7-7--|
E:----7--7(8)-------------|

G:----------------------------------|
D:----------------------------------|
A:5-5-5-5--5-5-5-5--5-5-5-5--5-5-5-5|
E:----------------------------------|

G:----------------------------|
D:----------------------------|  x2
A:-----5(8)-------------------|
E:7(8)------5--0-0-0-0-0-0-0-0|

G:----------------------------------------|
D:----------------------------------------|
A:5-5-5--7-7-7-----------6-6-6--5-5-5-5--7|
E:--------------5-5-5-5-------------------|


G:-----------------------------------------------|
D:----4-------------------4----------------------|
A:--7---4--5-5-5-5--7---7---4--5-5-5-5--7-7-7-7--|
E:5-------------------5-------------------------5|

Thanks, please rate after you learn it. 
Tabbed by:
_TheBassist01_
Comments