Relient K - Life After Death And Taxes Chords & Tabs

 

Life After Death And Taxes Chords & Tabs

Relient K Chords & Tabs

Version: 3 Type: Tab

Life After Death And Taxes Tab

Relient k:life after death and taxes (failure II)
album:mmhmm
tabbed by:Brittney
stunning drop d

this is 100% right i'm sure...

intro:
e|----------------------------------------------------------|
B|----------------------------------------------------------|
G|----------------------------------------------------------|
D|-12-12-12-12-----11-11-11------11--11----9-9-9------------|
A|-9--9--9--9------9--9--9-------9---9-----9-9-9------------|
D|-9--9--9--9------9--9--9-------9---9-----9-9-9------------|

e|----------------------------------------------------------|
B|----------------------------------------------------------|
G|----------------------------------------------------------|
D|-12-12-12-12-----11-11-11---9-9--------0------------------|
A|-9--9--9--9------9--9--9----9-9----0-0-0------------------|
D|-9--9--9--9------9--9--9----9-9----0-0-0------------------|

e|----------------------------------------------------------|
B|----------------------------------------------------------|
G|-7-7---7-7-----7-7-7-----7------7-7-7-7-------------------|
D|-5-5---5-5-----5-5-5-----5------5-5-5-5-------------------|
A|-5-5---5-5-----5-5-5-----5------5-5-5-5-------------------|
D|-5-5---5-5-----5-5-5-----5------5-5-5-5-------------------|
[ Tab from: http://www.guitartabs.cc/tabs/r/relient_k/life_after_death_and_taxes_tab_ver_3.html ]
e|---------------------------------------------------------|
B|---------------------------------------------------------|
G|-9-9-9-9----9--------------------------------------------|
D|-7-7-7-7----7--------------------------------------------|
A|-7-7-7-7----7----------0-2-------------------------------|
D|-7-7-7-7----7-----11-9-0-2-------------------------------|

then

e|----------------------------------------------------------|
B|----------------------------------------------------------|
G|----------------------------------------------------------|
D|-12-12-12-12-----11-11-11------11--11----9-9-9------------|
A|-9--9--9--9------9--9--9-------9---9-----9-9-9------------|
D|-9--9--9--9------9--9--9-------9---9-----9-9-9------------|

e|----------------------------------------------------------|
B|----------------------------------------------------------|
G|----------------------------------------------------------|
D|-12-12-12-12-----11-11-11---9-9--------0------------------|
A|-9--9--9--9------9--9--9----9-9----0-0-0------------------|
D|-9--9--9--9------9--9--9----9-9----0-0-0------------------|

e|----------------------------------------------------------|
B|----------------------------------------------------------|
G|-7-7---7-7-----7-7-7-----7------7-7-7-7-------------------|
D|-5-5---5-5-----5-5-5-----5------5-5-5-5-------------------|
A|-5-5---5-5-----5-5-5-----5------5-5-5-5-------------------|
D|-5-5---5-5-----5-5-5-----5------5-5-5-5-------------------|

e|---------------------------------------------------------|
B|---------------------------------------------------------|
G|-9-9-9-9----9--------------------------------------------|
D|-7-7-7-7----7---------------9----------------------------|
A|-7-7-7-7----7----------0-2/-9----------------------------|
D|-7-7-7-7----7-----11-9-0-2/-9----------------------------|