Relient K - Life After Death And Taxes Chords & Tabs

 

Life After Death And Taxes Chords & Tabs

Relient K Chords & Tabs

Version: 2 Type: Tab 0 ratings
1 star 2 stars 3 stars 4 stars 5 stars
comments

Life After Death And Taxes Tab

   
tuning: all flat (down a half step) and drop d

intro:
eb-------------------------------------------------------------------->
Bb-333-22-2-20-333-22-2-20-xxxxx-000-00-0-00-222-22-2----------------->
Gb-444-44-4-44-444-44-4-44-xxxxx-000-00-0-00-222-22-2----------------->
Db-------------------------------------------------------------------->
Ab-222-22-2-22-222-22-2-22-x-0---------------000-00-0-4-2------------->
Db-----------------------------5-555-55-5-55--------------0-2--------->
  repeat

verse:
eb-------------------------------------------------------------------->
Bb-------------------------------------------------------------------->
Gb-------------------------------------------------------------------->
Db-99xxxxx-5-5-5-5-99999999-5-5-5-5-99xxxxx-5-5-5-5-999999-7-7-5-5-5-5>
Ab-99xxxxx-5-5-5-5-99999999-5-5-5-5-99xxxxx-5-5-5-5-999999-7-7-5-5-5-5>
Db-99xxxxx-5-5-5-5-99999999-5-5-5-5-99xxxxx-5-5-5-5-999999-7-7-5-5-5-5>

chorus:
eb-xxxxxxxxxxxxxxxxxxxxxxxxxxxxxxxxxxxxxxxxxxxxxxxxxxxxxxxxxxxxxxxxxx->
Bb-333333333338888888888883333333333333101010101010101212121212121212->
Gb-222222222227777777777772222222222222999999999999991111111111111111->
Db-000000000005555555555550000000000000777777777777779999999999999999->
Ab-000000000005555555555550000000000000777777777777779999999999999999->
Db-000000000005555555555550000000000000777777777777779999999999999999->
[ Tab from: http://www.guitartabs.cc/tabs/r/relient_k/life_after_death_and_taxes_tab_ver_2.html ]
eb-xxxxxxxxxxx333333222222xxxxxxxxxxxxxxxxxxxxxxxxxxxxxxxxxxxxxxxxxxx->
Bb-888888888883333333333338888888888888333333333333331010101010101010->
Gb-777777777772222222222227777777777777222222222222229999999999999999->
Db-555555555550000000000005555555555555000000000000007777777777777777->
Ab-555555555550000000000005555555555555000000000000007777777777777777->
Db-555555555550000000000005555555555555000000000000007777777777777777->

eb-xxxxxxxxxxxxxxxxxxxxxxx->
Bb-12121212121288888888888->
Gb-11111111111177777777777->
Db-99999999999955555555555->  then repeat intro
Ab-99999999999955555555555->
Db-99999999999955555555555->

repeat verse

repeat chorus

bridge:

eb-222222-222222-xxxxxxx-xxxxxx-000000-xxxxxxx-xxxxxxx-xxx------------>
Bb-333333-333333-3333333-333333-222222-3333333-3333333-333------------>
Gb-444444-444444-4444444-222222-222222-2222222-4444444-222-3---------->
Db-444444-444444-4444444-000000-222222-0000000-4444444-000-4-5xx7xx11->
Ab-222222-000000-xxxxxxx-000000-000000-0000000-xxxxxxx-000-4-5xx7xx11->
Db---------------5555555-000000--------0000000-5555555-000---5xx7xx11->

repeat intro

bridge 2
eb-------------------------------------------------------------------->
Bb----------------------------------(3~~3-----3~~-7~~)---------------->
Gb----------------------------------(4~~4-4~~-2~~-6~~)---------------->
Db-5xxxxxx/7xxxxxx/9xxxxx/10xxxxx5~~(5~~4-5~~-0~~-8~~)---------------->
Ab-5xxxxxx/7xxxxxx/9xxxxx/10xxxxx5~~(5~~5-5~~-0~~-4~~)---------------->
Db-5xxxxxx/7xxxxxx/9xxxxx/10xxxxx5~~(-----5~~-0~~-4~~)---------------->
   |               |                   repeat 4x^  and then outro is
         this
     repeated once^
     (let it ring)

alrighty, thats it.  i hope i got it right, its a hard one to follow.  well, if you have 
comments/corrections, please do so.  thanks! enjoy
Comments