Relient K - Life After Death And Taxes Chords & Tabs

 

Life After Death And Taxes Chords & Tabs

Relient K Chords & Tabs

Version: 1 Type: Bass Tab 0 ratings
1 star 2 stars 3 stars 4 stars 5 stars
comments

Life After Death And Taxes Bass Tab

   
the chorus is the only part I had trouble on, so it might sound messed up to you,
everything else is good though. oh, and sorry it's so long, but it is what it is
(ya, i know, that sounded really dorky).
~ let ring
intro

g|-----------------------------------------------------------------------|
d|-----------------------------------------------------------------------|
a|-5555--444444--222------5555-444444--22--------------------------------|
e|----------------------------------------2-33333333333--55555-9-7--5-3--|

g|-----------------------------------------------------------------------|
d|-----------------------------------------------------------------------|
a|-5555--444444--222------5555-444444--22-----------------------------3--|
e|----------------------------------------2-33333333333--55555-9-7-5-3---|

verse 1

g|-----------------------------------------------------------------------|
d|-----------------------------------------------------------------------|
a|--------------------3--------------------------------------------------|
e|-3-3-3-3---6~--3~-2~----3-3-3-3---6~--3~-2~----------------------------|

chorus (two times)

g|-----------------------------------------------------------------------|
d|-----------------------------------------------------------------------|
a|-55-5-5-5-5-4-4-4-4-3-3-3-3-3-4-4-5-5-5-4-4-4--------------------------|
e|-----------------------------------------------------------------------|

verse 2

g|-----------------------------------------------------------------------|
d|-----------------------------------------------------------------------|
a|--------------------3--------------------------------------------------|
e|-3-3-3-3---6~--3~-2~----3-3-3-3-6~--3~-2~------------------------------|

chorus
[ Tab from: http://www.guitartabs.cc/tabs/r/relient_k/life_after_death_and_taxes_btab.html ]
g|-----------------------------------------------------------------------|
d|-----------------------------------------------------------------------|
a|-55-5-5-5-5-4-4-4-4-3-3-3-3-3-4-4-5-5-5-4-4-4-55-5-5-5-5-4-4-4-4-3-3-3-|
e|-----------------------------------------------------------------------|

chorus (cont.)

g|-----------------------------------------------------------------------|
d|-----------------------------------------------------------------------|
a|-3-3-4-4-5-5-5-4-4-4---------------------------------------------------|
e|---------------------555-222-------------------------------------------|

bridge (it's big)

g|-----------------------------------------------------------------------|
d|-----------------------------------------------------------------------|
a|-3~-0~-----2~-3~-0~-----2~---------------------------------------------|
e|------3~-2~--------3~-2~--3(thirteen times)-5(fourteen times)----------|

g|-----------------------------------------------------------------------|
d|-----------------------------------------------------------------------|
a|-5555-444444-222-5555-444444-22----------------------------------------|
e|-------------------------------2-33333333333-55555-9-77-5-33-----------|

g|-----------------------------------------------------------------------|
d|-----------------------------------------------------------------------|
a|-5555-444444-222-5555-444444-22----------------------------------------|
e|-------------------------------000-2-33333333333-55555-----------------|

g|-------------------------------------------------------------------------|
d|-------------------------------------------------------------------------|
a|-------------------------------------------------------------------------|
e|-3333333333333333333333-55555555555555555555-77777777777777777-99999993~-|

outro

g|-----------------------------------------------------------------------|
d|-----------------------------------------------------------------------|
a|-3~-0~-----2~-3~-0~----------------------------------------------------|
e|------3~-2~--------2~-3~-0~--------------------------------------------|

keep repeating until final fast beats.

-Echohunter90
Comments