Relient K - Less Is More Chords & Tabs

 

Less Is More Chords & Tabs

Relient K Chords & Tabs

Version: 1 Type: Tab 0 ratings
1 star 2 stars 3 stars 4 stars 5 stars
comments

Less Is More Tab

   
Less is more by Relient K tab
this is my first tab.

standard tuning (E,A,D,G,B,E)

Jesus I pray.... (piano intro)


pre-chourus: Do-do- do doo- do doot.....
e----------------------------------------------------------------|
B----------------------------------------------------------------|
G------------------3--3--3--3--5--5--5--5------------------------|
D-- 3--3--3--3--3--3--3--3--5--5--5--5--3--3--3--3---------------|
A-- 3--3--3--3--1--1--1--1--3--3--3--3--3--3--3--3---------------|
E-- 1--1--1--1--------------------------------1--1--1--1---------|

CHORUS: All that I have, I lay before....
e----------------------------------------------------------------|
B----------------------------------------------------------------|
G------------------3--3--3--3--5--5--5--5------------------------|
D-- 3--3--3--3--3--3--3--3--5--5--5--5--3--3--3--3---------------|
A-- 3--3--3--3--1--1--1--1--3--3--3--3--3--3--3--3---------------|
E-- 1--1--1--1--------------------------------1--1--1--1---------|

After chorus: I pour out myself...
e--------------------------------------------------------------------------------|
B--------------------------------------------------------------------------------|
G--------------------------------3--3--3--3--3--3--3--3--------------------------|
D--5--5--5--5--5--5--5--5--3--3--3--3--3--3--3--3--3--3--3--3--3--3--3--3--------|
A--5--5--5--5--5--5--5--5--1--1--1--1--1--1--1--1--3--3--3--3--3--3--3--3--------|
E--3--3--3--3--3--3--3--3--------------------------------1--1--1--1--1--1--1--1--|
[ Tab from: http://www.guitartabs.cc/tabs/r/relient_k/less_is_more_tab.html ]
e--------------------------------------------|
B--------------------------------------------|
G--5--5--5--5--5--5--5--5--------------------|
D--5--5--5--5--5--5--5--5-- 5----------------|
A--3--3--3--3--3--3--3--3-- 5----------------|
E-------------------------------- 3----------|

song structure:
intro
pre-chorus
chorus
after chorus
chorus
after chorus
intro/outro


Lyrics:

INTRO
Jesus, I pray
Take all my mistakes
Throw them away
Destroy them for my sake

Jesus, I call out 'cause I'm sorry
Because I fall so short of your glory
To the best of my ability
I'm practicing humility
And I lay myself before
'Cause less is more

PRE CHORUS
do-doot-do-do-do-doot...

CHORUS
All that I have
I lay before
With my pride on the floor
Cause to you less is more
All that I have
I lay before
With my pride on the floor
Cause to you less is more

I pour out myself
All that I am
You love me so much
That you fill me again
And may these words on my heart, on my lips
Somehow mean so much more than this

Jesus, I pray
Know what I'm trying to say

CHORUS
All that I have
I lay before
With my pride on the floor
'Cause to you less is more
All that I have
I lay before
With my pride on the floor
Cause to you less is more

AFTER CHORUS
I pour out myself, before you were Lord
I hold nothing back, 'cause to you less is more
And may these words on my heart on my lips,
Somehow mean so much more than this

Jesus, I pray
Just know what I'm tryin' to say

OUTRO
Jesus, I plead
Please purify me
Make my heart clean
Drench me with your mercy
Jesus, I pray
I love you, I need you
For the rest of my days
I swear I will seek you
To the best of my ability
I'm practicing humility
And I lay myself before
'Cause less is more.
Comments