Relient K - Less Is More Chords & Tabs

 

Less Is More Chords & Tabs

Relient K Chords & Tabs

Version: 1 Type: Bass Tab 0 ratings
1 star 2 stars 3 stars 4 stars 5 stars
comments

Less Is More Bass Tab

Less is More by Relient K
Standard Tuning

G:----------------------|
D:----------------------|  x5
A:------1--1--3--3------|
E:1--1--------------1--1|

G:----------------------|      |----------|
D:----------------------|  x2  |----------|
A:------1--1--------3--3|      |----------|
E:3--3--------1--1------|      |--3----3--|
[ Tab from: http://www.guitartabs.cc/tabs/r/relient_k/less_is_more_btab.html ]
  Know what im trying to say. . . 
G:----------|
D:----------|
A:--1----1--|
E:----------|

G:----------------------|
D:----------------------|  x4
A:------1--1--3--3------|
E:1--1--------------1--1|

G:----------------------|      |----------|
D:----------------------|  x2  |----------|
A:------1--1--------3--3|      |----------|
E:3--3--------1--1------|      |--3----3--|

(piano until the end of the song)

Thanks, please rate it after you learn it.
Tabbed by:
_TheBassist01_
Comments