Relient K - Kickoff Chords & Tabs

 

Kickoff Chords & Tabs

Relient K Chords & Tabs

Version: 1 Type: Bass Tab 0 ratings
1 star 2 stars 3 stars 4 stars 5 stars
comments

Kickoff Bass Tab

Kickoff by Relient K
Standard Tuning

(Intro)
G:---------------------------------------|
D:---------------------------------------|
A:---------------------------------------|
E:0--1--2--3--4--5--6--7-7--7-7--7-7--7-7|
[ Tab from: http://www.guitartabs.cc/tabs/r/relient_k/kickoff_btab.html ]
G:----------------------------|
D:2-------2-------------------|
A:--2-2-2---2-2-2--4-2-0-4-2--|
E:---------------------------0|

G:--------------------|
D:--------------------|
A:4--2--0--2----------|
E:------------0-0-0--0|

Thanks, please rate it after you learn it.
Tabbed by:
_TheBassist01_
Comments