Relient K - Jefferson Aero Plane Chords & Tabs

 

Jefferson Aero Plane Chords & Tabs

Relient K Chords & Tabs

Version: 2 Type: Bass Tab 0 ratings
1 star 2 stars 3 stars 4 stars 5 stars
comments

Jefferson Aero Plane Bass Tab

   
D------------------------------------------------------------------|
G----------------------------------------------------1-0-0---------|
A----------------------------2---------------2-------------3-3-0-0-|
E--3-3-3-3-3-3-3-0-1-1-1-1-1---3-1-0-0-0-0-0---3-0-1---------------|4x
                   ^
D-------------------------------------------------------------------------|
G-------------------------------------------------------------------------|
A-3--3---3--3---------------3--3---3--3---------------0--0--------0--0----|
E--------------3--3---3--3---------------3--3---3--3--------3--3--------3-|

D-------------------------------------------------------------------|
G-------------------------0-0-----------------------------0-0-------|
A-3-3-3-3-2-2-----0-0-0-0-----2-2-3-3-3-3-2-2-----0-0-0-0-----2-2---|
E-------------3-3-----------------------------3-3-----------------3-|
                                                                  ^
It's kind of confusing right here. The next time you start doing the verse part starts 
on that last G (I pointed at it.) BUT, it doesn't start until you go down to the F. (Also 
at) So it's kind of like this:

D------------------------------------------------------------------|
G----------------------------------------------------1-0-0---------|
A----------------------------2---------------2-------------3-3-0-0-|
E--3---------------1-1-1-1-1---3-1-0-0-0-0-0---3-0-1---------------|

Then it just does it three more times then this again:
[ Tab from: http://www.guitartabs.cc/tabs/r/relient_k/jefferson_aero_plane_btab_ver_2.html ]
D-------------------------------------------------------------------------|
G-------------------------------------------------------------------------|
A-3--3---3--3---------------3--3---3--3---------------0--0--------0--0----|
E--------------3--3---3--3---------------3--3---3--3--------3--3--------3-|

D-----------------------------------------------------------------|
G-------------------------0-0-----------------------------0-0-----|
A-3-3-3-3-2-2-----0-0-0-0-----2-2-3-3-3-3-2-2-----0-0-0-0-----2-2-|
E-------------3-3-----------------------------3-3-----------------|2x (second time end 
the low G)

Now you get to wait all the way until 3:47:

D--4--5---------4--5----------4--5----------4--5--|
G---------4--5---------4--5----------4--5---------|
A-------------------------------------------------|
E-------------------------------------------------|

Then wait again until 4:08

D-------------------------------------------------------------------------|
G-----------------------------------------------------0--0--------0--0----|
A-3--3---3--3---------------3--3---3--3---------------------3--3--------3-|
E--------------3--3---3--3---------------3--3---3--3----------------------|

D-----------------------------------------------------------------|
G-------------------------0-0-----------------------------0-0-----|
A-3-3-3-3-2-2-----0-0-0-0-----2-2-3-3-3-3-2-2-----0-0-0-0-----2-2-|
E-------------3-3-----------------------------3-3-----------------|2x
(second time end with the low G)

Then the song is over as far as the bass is concerned.
Comments