Relient K - In Love With The 80s Chords & Tabs

 

In Love With The 80s Chords & Tabs

Relient K Chords & Tabs

Version: 4 Type: Tab 0 ratings
1 star 2 stars 3 stars 4 stars 5 stars
comments

In Love With The 80s Tab

again, im putting the tuning in drop d (i have it that way for most of the
songs i play and so i dont want to mess with it all the time) but the
tuning can be standard.  just take the lowest D string notes and move them
down 2. :) (5 would be a 3.) lyrics included.  enjoy!

intro: guitar 2
e--------------------------------------------------------------------->
B---------------------------6xxxxxx----------------------------------->
G---------------------------5xxxxxx-5xxxxxx---------3xxxxxx----------->
D-(first part isn't guitar)-3xxxxxx-5xxxxxx-5xxxxxx-3xxxxxx----------->
A-----------------------------------3xxxxxx-5xxxxxx-1xxxxxx----------->
D-------------------------------------------5xxxxxx------------------->

verse 1: guitar 2
e--------------------------------------------------------------------->
B-6xxxxxx-------------------------6xxxxxx----------------------------->
G-5xxxxxx-5xxxxxx---------3xxxxxx-5xxxxxx-5xxxxxx---------3xxxxxx----->
D-3xxxxxx-5xxxxxx-5xxxxxx-3xxxxxx-3xxxxxx-5xxxxxx-5xxxxxx-3xxxxxx----->
A---------3xxxxxx-5xxxxxx-1xxxxxx---------3xxxxxx-5xxxxxx-1xxxxxx----->
D-----------------5xxxxxx-------------------------5xxxxxx------------->
so it was Jeremy in 1983 in his ocean pacific t who got a bloody knee on a
skateboard in the half pipe in the back yard that Tuesday night

e-------------------------------------------->
B-66-6--------------66-6--------------------->
G-55-55~~-5----3~~-355-55~~-----3~~---------->
D-33-35~~-555-53~~-333-35~~-55-53~~---------->
A-----3~~-355-51~~-1----3~~-55-51~~---------->
D----------55-5-------------55-5------------->
and I'm only gonna pierce my left ear and I've been working on this
mustache all summer long and my favorite band will always be tears for
fears and I'm gonna wear a pink tux to the prom

verse 2: guitar 2
e--------------------------------------------------------------------->
B-6xxxxxx-------------------------6xxxxxx----------------------------->
G-5xxxxxx-5xxxxxx---------3xxxxxx-5xxxxxx-5xxxxxx---------3xxxxxx----->
D-3xxxxxx-5xxxxxx-5xxxxxx-3xxxxxx-3xxxxxx-5xxxxxx-5xxxxxx-3xxxxxx----->
A---------3xxxxxx-5xxxxxx-1xxxxxx---------3xxxxxx-5xxxxxx-1xxxxxx----->
D-----------------5xxxxxx-------------------------5xxxxxx------------->
cutting class through the first floor window he's drivin fast cuz he never
did a thing slow and I look up to my big bro cuz in the 80's all the ladies
grabbed his hand and couldn't let go
[ Tab from: http://www.guitartabs.cc/tabs/r/relient_k/in_love_with_the_80s_tab_ver_4.html ]
e--------------------------------------------------------------------->
B-66-6--------------66-6-------------66-6----------------------------->
G-55-55~~-5----3~~-355-55~~-----3~~-355-55~~-5----------7777-5555----->
D-33-35~~-555-53~~-333-35~~-55-53~~-333-35~~-5555555555-7777-5555----->
A-----3~~-355-51~~-1----3~~-55-51~~-1----3~~-3555555555-5555-3335----->
D----------55-5-------------55-5--------------555555555--------------->
and I'm only gonna pierce my left ear and I've been working on this
mustache all summer long and my favorite band will always be tears for
fears and I'm gonna wear a pink tux to the prom, a pink tux to the prom

e--------------------------------------------------------------------->
B--------------------------------------------------------------------->
G---------5xxxxxx-------------------------5xxxxxx--------------------->
D-3xxxxxx-5xxxxxx-5xxxxxx-8xxxxxx-3xxxxxx-5xxxxxx-5xxxxxx-8xxxxxx----->
A-3xxxxxx-3xxxxxx-5xxxxxx-8xxxxxx-3xxxxxx-3xxxxxx-5xxxxxx-8xxxxxx----->
D-3xxxxxx---------5xxxxxx-8xxxxxx-3xxxxxx---------5xxxxxx-8xxxxxx----->
doo doo  doo doo doo pink tux to the prom doo doo  doo doo doo pink tux to
the prom

riff guitar 1 plays:  (chorus)
e------------------------------------3-3-3h5p3-1-3-3-3h5p3-1~~-------->
B-----6-5v--1-1-3-1-------------6-5v---------------------------------->
G----5-------------------------5-------------------------------------->
D-3-5--------------3-5-7-5--3-5--------------------------------------->
A--------------------------------------------------------------------->
D--------------------------------------------------------------------->
*v = vibrato

chorus: guitar 2
e-------------------------------------------->
B-6666----------------6666------------------->
G-5555-5555------3333-5555-5555------3333---->
D-3333-5555-5555-3333-3333-5555-5555-3333---->
A------3333-5555-1111------3333-5555-1111---->
D-----------5555----------------5555--------->
I am gonna wear a pink tux to the prom live without a care what could
possibly go wrong?

verse 3: guitar 2
e------------------------------------------------------------->
B-6xxxxxx-------------------------6xxxxxx---------8~~--------->
G-5xxxxxx-5xxxxxx---------3xxxxxx-5xxxxxx-5xxxxxx-7~~--------->
D-3xxxxxx-5xxxxxx-5xxxxxx-3xxxxxx-3xxxxxx-5xxxxxx-5~~-8~~----->
A---------3xxxxxx-5xxxxxx-1xxxxxx---------3xxxxxx-----8~~----->
D-----------------5xxxxxx-----------------------------8~~----->
when you're the president of the breakfast club and you're not hesitant to
fall in love, to fall in love to throw it away, to fall in love with the
80's

fill: guitar 2
e------------------------------------------------------------->
B-6xxxxxx-------------------------6xxxxxx---------8~~--------->
G-5xxxxxx-5xxxxxx---------3xxxxxx-5xxxxxx-5xxxxxx-7~~--------->
D-3xxxxxx-5xxxxxx-5xxxxxx-3xxxxxx-3xxxxxx-5xxxxxx-5~~-8~~----->
A---------3xxxxxx-5xxxxxx-1xxxxxx---------3xxxxxx-----8~~----->
D-----------------5xxxxxx-----------------------------8~~----->

repeat chorus twice

outro: guitar 1
e-------------------------------------6-6-6/8-\6-5-6-6-6/8-\6-5~~----->
B-----6-5v--1-1-3-1--------------6-5v-8-8-8/10\8-6-8-8-8/10\8-6~~----->
G----5--------------------------5------------------------------------->
D-3-5--------------3-5-7-5v--3-5-------------------------------------->
A--------------------------------------------------------------------->
D--------------------------------------------------------------------->
Comments