Relient K - In Love With The 80s Chords & Tabs

 

In Love With The 80s Chords & Tabs

Relient K Chords & Tabs

Version: 3 Type: Tab 0 ratings
1 star 2 stars 3 stars 4 stars 5 stars
comments

In Love With The 80s Tab

   
-----------------------------------------------------------------------------
In Love With the 80's (Pink Tux to the Prom)- Relient K
-----------------------------------------------------------------------------
Tabbed by: ninja-explosion
Email:
This is the guitar tab plus I put the keyboard part in ()'s, except for the intro and interlude.

Tuning: standard

Intro: on keyboard
A F A G E G G D G Bb A G       (played twice)
chords on keyboard: F C G Bb

chords played 8 times each  play once
e|---------------------------------------------------------------------------|
B|---------------------------------------------------------------------------|
G|-10------------------------------------------------------------------------|
D|-10--10--5--8--------------------------------------------------------------|
A|--8--10--5--8--------------------------------------------------------------|
E|------8--3--6--------------------------------------------------------------|
  xxxxxxxxxxxxx (palm muted)

verse (keyboard keeps playing chords) play twice
e|---------------------------------------------------------------------------|
B|---------------------------------------------------------------------------|
G|-10------------------------------------------------------------------------|
D|-10--10--5--8--------------------------------------------------------------|
A|--8--10--5--8--------------------------------------------------------------|
E|------8--3--6--------------------------------------------------------------|
  xxxxxxxxxxxxx

chorus (keyboard drops out) play 4 times
e|---------------------------------------------------------------------------|
B|---------------------------------------------------------------------------|
G|-10------------------------------------------------------------------------|
D|-10--1010--5-5--8-8--------------------------------------------------------|
A|--8--1010--5-5--8-8--------------------------------------------------------|
E|------8-8--3-3--6-6--------------------------------------------------------|

verse 2  (keyboard plays intro) play twice
e|-----------------------------------------------------------------------------|
B|-----------------------------------------------------------------------------|
G|-10--------------------------------------------------------------------------|
D|-10--10--5--8----------------------------------------------------------------|
A|--8--10--5--8----------------------------------------------------------------|
E|------8--3--6----------------------------------------------------------------|
  xxxxxxxxxxxxx

chorus w/ alternate ending (keyboard drops out)
e|---------------------------------------------------------------------------|
B|---------------------------------------------------------------------------|
G|-10--------------------X3--10----------------------------------------------|
D|-10--1010--5-5--8-8--------10--1010--5-5-5-5-5-5-5-5--8-8-8-8--------------|
A|--8--1010--5-5--8-8---------8--1010--5-5-5-5-5-5-5-5--8-8-8-8--10101010----|
E|------8-8--3-3--6-6-------------8-8--3-3-3-3-3-3-3-3--6-6-6-6--8-8-8-8-----|
                                       pink tux to...     pink tux to the...

bridge 1 (keyboard plays chords) play chords 8 times
e|---------------------------------------------------------------------------|
B|---------------------------------------------------------------------------|
G|-10------------------------------------------------------------------------|
D|-10--10--5--8--------------------------------------------------------------|
A|--8--10--5--8--------------------------------------------------------------|
E|------8--3--6--------------------------------------------------------------|
  xxxxxxxxxxxxx
  doo doo... doo doo doo...
[ Tab from: http://www.guitartabs.cc/tabs/r/relient_k/in_love_with_the_80s_tab_ver_3.html ]
bridge 2 guitar 1 (keyboard drops out) play 2 times
e|---------------------------------------------------------------------------|
B|---------------------------------------------------------------------------|
G|-10-10-10-10---------------------------------------------------------------|
D|-10-10-10-10------10-----5-----8-------------------------------------------|
A|--8--8--8--8------10-x8--5-x8--8-x8----------------------------------------|
E|-------------------8-----3-----6-------------------------------------------|
   I am gonna wear...

bridge 2 guitar 2    same as ending solo
e|----1-0-------------------------1-0---3-3-3/5\1-1~--3-3-3/5\1-1~-----------|
B|---1------1-1-1/3/1------------1-------------------------------------------|
G|--------------------0-2~-0----2--------------------------------------------|
D|--2----------------3---------3---------------------------------------------|
A|-3-------------------------------------------------------------------------|
E|---------------------------------------------------------------------------|

verse 3
e|---------------------------------------------------------------------------|
B|---------------------------------------------------------------------------|
G|-10-------------10---------------------------------------------------------|
D|-10--10--5--8---10--10-----5------------------8----------------------------|
A|--8--10--5--8----8--10-----5------------------8----------------------------|
E|------8--3--6--------8-----3------------------6----------------------------|
  xxxxxxxxxxxxxxxxxxxxxx    to throw it away...   to fall in love with...

interlude
keyboard:  C C Bb F   C C Bb F   C C Bb F   C C Bb F
play with chords F C G Bb under it

play each chord 8 times except for the last 2, play once
e|---------------------------------------------------------------------------|
B|---------------------------------------------------------------------------|
G|-10------------10----------------------------------------------------------|
D|-10--10--5--8--10--10----5----8--------------------------------------------|
A|--8--10--5--8---8--10----5----8--------------------------------------------|
E|------8--3--6-------8----3----6--------------------------------------------|
  xxxxxxxxxxxxxxxxxxxxx

...the 80's...

bridge 2   2 times (total of 8 w/ repeats)
(on the 8th time play G5 and Bb5 once w/out p.m. )

outro
keyboard plays intro riff 6 times w/ chords F C G Bb

chords played 8 times each  play twice
e|---------------------------------------------------------------------------|
B|---------------------------------------------------------------------------|
G|-10------------------------------------------------------------------------|
D|-10--10--5--8--------------------------------------------------------------|
A|--8--10--5--8--------------------------------------------------------------|
E|------8--3--6--------------------------------------------------------------|
  xxxxxxxxxxxxxx

guitar 2 ends with this solo
e|----1-0-------------------------1-0---3-3-3/5\1-1~--3-3-3/5\1-1~-----------|
B|---1------1-1-1/3/1------------1-------------------------------------------|
G|--------------------0-2~-0----2--------------------------------------------|
D|--2----------------3---------3---------------------------------------------|
A|-3-------------------------------------------------------------------------|
E|---------------------------------------------------------------------------|


order

intro
verse 1
chorus
verse 2
chorus (w/ alternate ending)
bridge 1
bridge 2
verse 3
interlude
bridge 2 x2
outro


| /  slide up
| \  slide down
| h  hammer-on
| p  pull-off
| ~  vibrato
| +  harmonic
| x  palm mute note
===============================================================================
Comments