Relient K - In Love With The 80s Chords & Tabs

 

In Love With The 80s Chords & Tabs

Relient K Chords & Tabs

Version: 2 Type: Tab 0 ratings
1 star 2 stars 3 stars 4 stars 5 stars
comments

In Love With The 80s Tab

Hey, I finally got some time to sit down and write out RK tabs so here it goes.

Intro:
e|-5---5-3---3-3---3--6--5--3-|
B|---6-----5-----3------------|
G|----------------------------|
D|----------------------------|
A|----------------------------|
E|----------------------------|

Verse:{Palm Muted} play 8 times each (palm muted with thumb to get that cool sound like thiessen does
e|----------------------|
B|----------------------|
G|-10-------------------|
D|-10--10--5--8---------|
A|--8--10--5--8---------|
E|------8--3--6---------|

Chorus:Distortion play eight times each
e|----------------------|
B|----------------------|
G|-10-------------------|
D|-10--10--5--8---------|
A|--8--10--5--8---------|
E|------8--3--6---------|
[ Tab from: http://www.guitartabs.cc/tabs/r/relient_k/in_love_with_the_80s_tab_ver_2.html ]
Verse:{Palm Muted} eight times each
e|----------------------|
B|----------------------|
G|-10-------------------|
D|-10--10--5--8---------|
A|--8--10--5--8---------|
E|------8--3--6---------|

Chorus:Distortion play eight times each
e|----------------------|
B|----------------------|
G|-10-------------------|
D|-10--10--5--8---------|
A|--8--10--5--8---------|
E|------8--3--6---------|

Bridge Thing:Clean 5 times each
e|----------------------|
B|----------------------|
G|-10-------------------|
D|-10--10--5--8---------|
A|--8--10--5--8---------|
E|------8--3--6---------|

Repeat Chorus

Solo:
e|-------1-0--------------------1-0-3-3-3/5\1-1-|
B|-----1-----1-1-1/3\1---------1----------------|
G|---------------------0-2-0--2-----------------|
D|---2----------------3------3------------------|
A|-3--------------------------------------------|
E|----------------------------------------------|

Verse then Chorus then outro{bridge}

that's it enjoi
Comments