Relient K - In Love With The 80s Chords & Tabs

 

In Love With The 80s Chords & Tabs

Relient K Chords & Tabs

Version: 1 Type: Bass Tab 0 ratings
1 star 2 stars 3 stars 4 stars 5 stars
comments

In Love With The 80s Bass Tab

In love with the 80's by Relient K
Standard Tuning

(Intro)
G:----------------------|
D:3(8)------------------|  x3
A:------3(8)--------1(8)|
E:------------3(8)------|

G:------------------------------------|
D:3-----------------3-----------------|  x2
A:---3-3-------3-3-----3-3-------1-1--|
E:--------3-3---------------3-3------1|

(Verse I)
G:----------------------|
D:3(8)------------------|  x3
A:------3(8)--------1(8)|
E:------------3(8)------|

G:------------------------------------|
D:3-----------------3-----------------| 
A:---3-3-------3-3-----3-3-------1-1--|
E:--------3-3---------------3-3------1|
[ Tab from: http://www.guitartabs.cc/tabs/r/relient_k/in_love_with_the_80s_btab.html ]
G:---------------------------------------------------|
D:3-----------------3----------------1-1-1-1---------| 
A:---3-3-------3-3-----3-3--------------------3-3-3-3|
E:--------3-3---------------3-3(16)------------------|

G:----------------------|
D:----------------------|  x2
A:1(8)--------3(8)------|
E:------1(8)--------3(8)|

I am gonna wear. . . 
G:-------------------|
D:3-3-3-3------------|  x2
A:---------3~------3~|
E:-------------3~----|

(Verse II)
G:------------------------------------------------|
D:3(8)--------------------3(8)--------------------|  x2
A:------3(8)--------1(8)--------3(8)------------1~|
E:------------3(8)--------------------3(8)--1~----|

G:-------------------|
D:3-3-3-3------------|  x4
A:---------3~------3~|
E:-------------3~----|

G:----------------------|
D:3(8)------------------|  x6  (Fades out)
A:------3(8)--------1(8)|
E:------------3(8)------|

Thanks, please rate it after you learn it.
Tabbed by:
_TheBassist01_
Comments