Relient K - Im Lion-o Chords & Tabs

 

Im Lion-o Chords & Tabs

Relient K Chords & Tabs

Version: 2 Type: Tab 0 ratings
1 star 2 stars 3 stars 4 stars 5 stars
comments

Im Lion-o Tab

   
Intro (clean):

-=1=-
e|---------------------------------|
B|---------------------------------|
G|---------------------------------| Continue on
D|-9-9-9-9-9-9-9-9-----------------| to part 2.
A|-7-7-7-7-7-7-7-7-7-7-7-7-7-7-7-7-|
E|-----------------5-5-5-5-5-5-5-5-|
-=2=-
e|---------------------------------|
B|---------------------------------|
G|---------------------------------| Go back to
D|-6-6-6-6-6-6-6-6-4-4-4-4-4-4-4-4-| part 1.
A|-4-4-4-4-4-4-4-4-2-2-2-2-2-2-2-2-| (repeat 6x)
E|---------------------------------|

End on E5* (see verse for chord tab)

Verse 1 (distortion/power chords):

E5* A5  C#5 B5
e|-----------------|
B|-----------------|
G|--9-------6---4--| repeat 14x
D|--9---7---6---4--|
A|--7---7---4---2--|
E|------5----------|

Palm mute B5

Chorus (distortion/power chords):

E5* A5  C#5 B5
e|-----------------|
B|-----------------|
G|--9-------6---4--| repeat 8x
D|--9---7---6---4--|
A|--7---7---4---2--|
E|------5----------|

Palm mute B5
[ Tab from: http://www.guitartabs.cc/tabs/r/relient_k/im_lion_o_tab_ver_2.html ]
Bridge (distortion/power chords/palm mute):

P.M. Pattern - XX\X\/

C#5 A5  E5* B5
e|-----------------|
B|-----------------|
G|--6-------9---4--| repeat 2x
D|--6---7---9---4--| 
A|--4---7---7---2--|
E|------5----------|

No P.M.

e|-----------------|
B|-----------------|
G|--6-------9---4--|
D|--6---7---9---4--| 
A|--4---7---7---2--|
E|------5----------|

P.M. Pattern - XX\X\/

C#5 A5  E5* B5
e|-----------------|
B|-----------------|
G|--6-------9---4--| repeat 2x
D|--6---7---9---4--| 
A|--4---7---7---2--|
E|------5----------|

-=1=-
e|---------------------------------|
B|---------------------------------|
G|---------------------------------| Continue on
D|-9-9-9-9-9-9-9-9-----------------| to part 2.
A|-7-7-7-7-7-7-7-7-7-7-7-7-7-7-7-7-|
E|-----------------5-5-5-5-5-5-5-5-|
-=2=-
e|---------------------------------|
B|---------------------------------|
G|---------------------------------| Go back to
D|-6-6-6-6-6-6-6-6-4-4-4-4-4-4-4-4-| part 1.
A|-4-4-4-4-4-4-4-4-2-2-2-2-2-2-2-2-| (repeat 6x)
E|---------------------------------|

Back to Chorus
Comments