Relient K - Im Lion-o Chords & Tabs

 

Im Lion-o Chords & Tabs

Relient K Chords & Tabs

Version: 1 Type: Bass Tab 0 ratings
1 star 2 stars 3 stars 4 stars 5 stars
comments

Im Lion-o Bass Tab

I'm Lion-O by Relient K
Standard Tuning

(Intro)
G:----------|----------|----------|----------|
D:------2--2|------2--2|------2--2|----------|
A:----------|0--0------|2--2------|--2----2--|
E:0--0------|----------|----------|----------|

G:----------|----------|----------|----------|
D:2--2--2--2|----------|----------|----------|  x4
A:----------|0--0--0--0|4--4--4--4|2--2--2--2|
E:----------|----------|----------|----------|

G:----------|----------|----------|----------|
D:------2--2|------2--2|------2--2|----------|  x2
A:----------|0--0------|2--2------|--2----2--|
E:0--0------|----------|----------|----------|

G:----------|----------|----------|----------|
D:2--2--2--2|----------|----------|----------|  x4
A:----------|0--0--0--0|4--4--4--4|2--2--2--2|
E:----------|----------|----------|----------|

G:----------|----------|----------|----------|
D:------2--2|------2--2|------2--2|----------|  x4
A:----------|0--0------|2--2------|--2----2--|
E:0--0------|----------|----------|----------|
[ Tab from: http://www.guitartabs.cc/tabs/r/relient_k/im_lion_o_btab.html ]
G:----------|----------|----------|----------|
D:----------|----------|----------|----------|  x2
A:2--2--2--2|4--4--4--4|----------|2--2--2--2|
E:----------|----------|4--4--4--4|----------|

G:----------|----------|----------|----------|
D:----------|----------|----------|----------|  x4
A:4--4--4--4|0--0--0--0|----------|2--2--2--2|
E:----------|----------|0--0--0--0|----------|

G:----------|----------|----------|----------|
D:------2--2|------2--2|------2--2|----------|  x3
A:----------|0--0------|2--2------|--2----2--|
E:0--0------|----------|----------|----------|

G:----------|----------|----------|----------|
D:2--2--2--2|----------|----------|----------|  x4
A:----------|0--0--0--0|4--4--4--4|2--2--2--2|
E:----------|----------|----------|----------|

G:----------|----------|----------|----------|
D:------2--2|------2--2|------2--2|----------|  x6
A:----------|0--0------|2--2------|--2----2--|
E:0--0------|----------|----------|----------|

(Outro)
G:----------|----------|----------|----------|
D:----------|----------|----------|----------|
A:----------|----------|----------|----------|
E:0--0--0--0|0--0--0--0|----------|----------|

Thanks, please rate it after you learn it. 
Tabbed by:
_TheBassist01_
Comments