Relient K - I So Hate Consequences Chords & Tabs

 

I So Hate Consequences Chords & Tabs

Relient K Chords & Tabs

Version: 3 Type: Tab 0 ratings
1 star 2 stars 3 stars 4 stars 5 stars
comments

I So Hate Consequences Tab

Guitar 2 is drop d and flatted.  Guitar 1 is standard tuning.

Intro/verse: gt.1       gt.2
eb-5-5-5-5-5-5-5-5-5-5-5---------------------------------------------->
Bb-------------------------------------------------------------------->
Gb-2-2-2-2-2-2-2-2-2-2-244444444444477777777777444444444-------------->
Db----------------------444444444444777777777774444444445555555577777->
Ab----------------------222222222222555555555552222222225555555577777->
Db------------------------------------------------------5555555577777->
Guitar 1
e--------------------------------------------------------------------->
B-------------------------------------------------------2222222244444->
G--------------------------------------------------------------------->
D--------------------------------------------------------------------->
A--------------------------------------------------------------------->
E--------------------------------------------------------------------->
[ Tab from: http://www.guitartabs.cc/tabs/r/relient_k/i_so_hate_consequences_tab_ver_3.html ]
Gt.1      Gt.2
e--------------------------------------------------------------------->
B-221221-------------------------------------------------------------->
Gb--------4xxxxx7xxxxx------------2xxxxx444444777777----------2222---->
Db--------4xxxxx7xxxxx5xxxxx0xxxxx2xxxxx44444477777755555500002222---->
Ab--------2xxxxx5xxxxx5xxxxx0xxxxx0xxxxx22222255555555555500000000---->
Db--------------------5xxxxx0xxxxx------------------5555550000-------->
                
                Chorus:
eb-------------------------------------------------------------------->
Bb-------------------------------------------------------------------->
Gb-4-4-2xx----------777744442222----777744442222----777744442222------>
Db-4-4-2xx-0~~--5555777744442222555577774444222255557777444422225xxxx->
Ab-2-2-0xx-0~~--5555555522220000555555552222000055555555222200005xxxx->
Db---------0~~--5555------------5555------------5555------------5xxxx->

eb-------------------------------------------------------------------->
Bb-------------------------------------------------------------------->
Gb----------------------444444444444---------------------------------->
Db-7xxxxxxx0000000000000444444444444555555555555777777---------------->
Ab-7xxxxxxx0000000000000222222222222555555555555777777---------------->
Db-7xxxxxxx0000000000000------------555555555555777777---------------->

Repeat verse without muting

Repeat chorus end with:
eb-------------------------------------------------------------------->
Bb-------------------------------------------------------------------->
Gb-4~~---------------------------------------------------------------->
Db-4~~--5~~---0~~-7~~-555-777-999-999-555-777-999-999-5~~0~~5xxx0~~--->
Ab-2~~--5~~---0~~-7~~-555-777-999-999-555-777-999-999-5~~0~~5xxx0~~--->
Db------5~~---0~~-7~~-555-777-999-999-555-777-999-999-5~~0~~5xxx0~~--->

bridge:  first part is piano
eb--------------------------(14)-------------------------------------->
Bb-------------------------------------------------------------------->
Gb-------------------------------------------------------------------->
Db-2xxxxxxxxxx9xxxxx7xxxxx5~~----555-777-999-999-5~~-0~~-5xxx-0~~----->
Ab-2xxxxxxxxxx9xxxxx7xxxxx5~~----555-777-999-999-5~~-0~~-5xxx-0~~----->
Db-2xxxxxxxxxx9xxxxx7xxxxx5~~----555-777-999-999-5~~-0~~-5xxx-0~~----->

ok, that's that tab.  i know i got it right, but maybe i'm wrong so please
let me know if you have any comments or corrections.  thanks! enjoy
Comments