Relient K - I So Hate Consequences Chords & Tabs

 

I So Hate Consequences Chords & Tabs

Relient K Chords & Tabs

Version: 1 Type: Tab 0 ratings
1 star 2 stars 3 stars 4 stars 5 stars
comments

I So Hate Consequences Tab

   
Song: I So Hate Consequences
Artist: Relient K
Album: mmHmm
Tabbed by: Deborah Chan
Email: skemo_the_fish@hotmail.com

Tuning: Db Ab Db Gb Bb eb. (Drop D flat?)

   Intro (Guitar 1)
eb|---------------------------------------------------------------------------|
Bb|---------------------------------------------------------------------------|
Gb|-14--14--14-14-14-14--14--14--14-14-14---14--14--14-14-14-14--14--14--14\--|
Db|-x---x---x--x--x--x---x---x---x--x--x----x---x---x--x--x--x---x---x---x-\--|
Ab|-12--12--12-12-12-12--12--12--12-12-12---12--12--12-12-12-12--12--12--12\--|
Db|---------------------------------------------------------------------------|
    
eb|------------------------------------------|
Bb|------------------------------------------|
Gb|-11-11-11-11\9--9-9-9\7--7-7-7\6--6-6-6/--|
Db|-x--x--x--x-\x--x-x-x\x--x-x-x\x--x-x-x/--|
Ab|-9--9--9--9-\7--7-7-7\5--5-5-5\4--4-4-4/--|
Db|------------------------------------------|

eb|---------------------------------------------------------------------------|
Bb|---------------------------------------------------------------------------|
Gb|-14--14--14-14-14-14--14--14--14-14-14---14--14--14-14-14-14--14--14--14\--|
Db|-x---x---x--x--x--x---x---x---x--x--x----x---x---x--x--x--x---x---x---x-\--|
Ab|-12--12--12-12-12-12--12--12--12-12-12---12--12--12-12-12-12--12--12--12\--|
Db|---------------------------------------------------------------------------|

eb|-----------------------------------------|
Bb|-----------------------------------------|
Gb|-11-11-11-11\9--9-9-9\7--7-7-7\9--9-9-9--|
Db|-x--x--x--x-\x--x-x-x\x--x-x-x\x--x-x-x--|
Ab|-9--9--9--9-\7--7-7-7\5--5-5-5\7--7-7-7--|
Db|-----------------------------------------|

eb|-----------------------------------------------------------------|
Bb|-----------------------------------------------------------------|
Gb|------6-6-7-7-6-6-7-7-6-6-7-7-6-------6-6-7-7-6-6-7-7-6-6-7-7-6--|
Db|-0--0(0-0-0-0-0-0-0-0-0-0-0-0-0)------------------0-0-0-0-0-0-0--|
Ab|--------------------------------0---0(0-0-0-0-0-0)---------------|
Db|-----------------------------------------------------------------|
     
   Intro (Guitar 2)
eb|-----------------------------------------------------|
Bb|-----------------------------------------------------|
Gb|--------------------4444444444444444444444444444444--|
Db|-(Guitar 1 octaves)-4444444444444444444444444444444--|
Ab|--------------------2222222222222222222222222222222--|
Db|-----------------------------------------------------|

eb|-----------------------------------------------------------------|
Bb|-----------------------------------------------------------------|
Gb|--------------------------------4444444444444444444444444444444--|
Db|-00000000000000000000000000000004444444444444444444444444444444--|
Ab|-00000000000000000000000000000002222222222222222222222222222222--|
Db|-0000000000000000000000000000000---------------------------------|

eb|----------------|
Bb|----------------|
Gb|----------------|
Db|-55555555/7777--|
Ab|-55555555/7777--|
Db|-55555555/7777--|

   Verse
eb|-----------------------------------------------------------------|
Bb|-----------------------------------------------------------------|
Gb|-4--4-4-4-4-4-4-4-4-4-4-4-4-4-4----------------------------------|
Db|-4--4-4-4-4-4-4-4-4-4-4-4-4-4-4--0--0-0-0-0-0-0-0-0-0-0-0-0-0-0--|
Ab|-2--2-2-2-2-2-2-2-2-2-2-2-2-2-2--0--0-0-0-0-0-0-0-0-0-0-0-0-0-0--|
Db|----*-*-*-*-*-*-*-*-*-*-*-*-*-*--0--0-0-0-0-0-0-0-0-0-0-0-0-0-0--|
                                       * * * * * * * * * * * * * *
eb|-----------------------------------------------------------------|
Bb|-----------------------------------------------------------------|
Gb|------------------------------------------------2---2-2-2-2-2-2--|
Db|-5--5-5-5-5-5-5-5-5-5-5-5-5-5-5--0--0-0-0-0-0-0-2---2-2-2-2-2-2--|
Ab|-5--5-5-5-5-5-5-5-5-5-5-5-5-5-5--0--0-0-0-0-0-0-0---0-0-0-0-0-0--|
Db|-5--5-5-5-5-5-5-5-5-5-5-5-5-5-5--0--0-0-0-0-0-0-----*-*-*-*-*-*--|
       * * * * * * * * * * * * * *     * * * * * *
   
Then again, with no palm muting and with Guitar 1 playing these over top:

eb|------------------------------------------------------|
Bb|------------------------------------------------------|
Gb|-11-------------------5------------------9------------|
Db|-x--(over B5 and D5)--x-(over G5 and D5)-x-(over A5)--|
Ab|-9--------------------7------------------7------------|
Db|------------------------------------------------------|
[ Tab from: http://www.guitartabs.cc/tabs/r/relient_k/i_so_hate_consequences_tab.html ]
eb|------------------------------------------------------------------|
Bb|------------------------------------------------------------------|
Gb|-4---4---4---4---2-2-2-2-2-2-2------------------------------------|
Db|-4---4---4---4---2-2-2-2-2-2-2-0~---------------------------------|
Ab|-2---2---2---2---0-0-0-0-0-0-0-0~---------------------------------|
Db|-----------------*-*-*-*-*-*-*-0~---------------------------------|
                                                                 
The Chorus contains chords:
eb|------------------------|
Bb|------------------------|
Gb|------------------------|
Db|-5--7--4--2--(x3)-5--7--|
Ab|-5--5--2--0-------5--7--|
Db|-5----------------5--7--|
                     *  *

o play the intro but shorter
o play the same basic chords for verse 2 as verse 1.

Clean notes at end:

eb|-----2~------------2~------------2~-------2~---0~------2~----0~------|
Bb|---3-------------3-------------3--------3----3--------3~----3~-------|
Gb|-4-------------2-------------0--------2----6---------4~----6~--------|
Db|-----------------------------------------------------------------0~--| 
Ab|-----------------------------------------------------------------0~--|
Db|-----------------------------------------------------------------0~--|

o play chorus

   Bridge(Guitar 1):
eb|-10-10-10-10--etc.-then-|----------------------------------------------------|
Bb|-10-10-10-10------------|----------------------------------------------------|
Gb|------------------------|-o-11-11-11----11-11-11----12-12-12----12-12-12-----|
Db|------------------------|-o--x--x--x-----x--x--x-----x--x--x-----x--x--x-----|
Ab|------------------------|----9--9--9-----9--9--9----10-10-10----10-10-10-----|
Db|------------------------|----------------------------------------------------|


eb|----------------------------------|-------------------------------|
Bb|----------------------------------|-------------------------------|
Gb|-7-7-7---7-7-7---7-7-7---7-7-7--o-|--7--------2--------7-------2--|
Db|-x-x-x---x-x-x---x-x-x---x-x-x--o-|--5--------0--------5-------0--|
Ab|-5-5-5---5-5-5---5-5-5---5-5-5----|--5--------0--------5-5-5-5-0--|
Db|----------------------------------|--5--------0--------5-5-5-5-0--|
                                                            * * *
   Bridge (Guitar 2):
eb|-----------------------------|--------------------------------------------|
Bb|-----------------------------|--------------------------------------------|
Gb|-4-----------------------2---|-o-------------------2-2-2---2-2-2---4-4-4--|
Db|-4-------5-------0-------2---|-o---5-5-5---5-5-5---2-2-2---2-2-2---4-4-4--|
Ab|-2-------5-------0-------0---|-----5-5-5---5-5-5---0-0-0---0-0-0---2-2-2--|
Db|---------5-------0-----------|-----5-5-5---5-5-5--------------------------|
                                                       
eb|--------------------------|--------------------------------|
Bb|--------------------------|--------------------------------|
Gb|-4-4-4---4-4-4---4-4-4--o-|--------------------------------|
Db|-4-4-4---4-4-4---4-4-4--o-|--5--------0--------5--5-5-5-0--|
Ab|-2-2-2---2-2-2---2-2-2----|--5--------0--------5--5-5-5-0--|
Db|--------------------------|--5--------0--------5--5-5-5-0--|
                                                     * * *
   Bridge con't. (after piano part)
eb|--------------------------------------------------------------------------|
Bb|--------------------------------------------------------------------------|
Gb|---------------------------------4-4-4---4-4-4---2-2-2---2-2-2------------|
Db|-2-2-2---2-2-2---2-2-2---2-2-2---4-4-4---4-4-4---2-2-2---2-2-2---5--------|
Ab|-2-2-2---2-2-2---2-2-2---2-2-2---2-2-2---2-2-2---0-0-0---0-0-0---5--------|
Db|-2-2-2---2-2-2---2-2-2---2-2-2---*-*-*---*-*-*---*-*-*---*-*-*---5--------|
    * * *   * * *   * * *   * * *

(chorus in piano)

eb|---------------------------------------------------------------------------|
Bb|---------------------------------------------------------------------------|
Gb|-7-7-7---7-7-7---9-9-9---9-9-9---11-11-11---11-11-11---11-11-11---11-11-11-|
Db|-5-5-5---5-5-5---7-7-7---7-7-7---9--9--9----9--9--9----9--9--9----9--9--9--|
Ab|-5-5-5---5-5-5---7-7-7---7-7-7---9--9--9----9--9--9----9--9--9----9--9--9--|
Db|-5-5-5---5-5-5---7-7-7---7-7-7---9--9--9----9--9--9----9--9--9----9--9--9--|
    
eb|-------------------------------|
Bb|-------------------------------|
Gb|--7--------2--------7-------2--|
Db|--5--------0--------5-------0--|
Ab|--5--------0--------5-5-5-5-0--|
Db|--5--------0--------5-5-5-5-0--|
                         * * *

| *  palm mute
| /  slide up
| \  slide down
| h  hammer-on
| p  pull-off
| ~  let ring
| +  harmonic
| x  Mute note
===============================================================================
Comments