Relient K - High Of 75 Chords & Tabs

 

High Of 75 Chords & Tabs

Relient K Chords & Tabs

Version: 3 Type: Tab 0 ratings
1 star 2 stars 3 stars 4 stars 5 stars
comments

High Of 75 Tab

   
this is a somewhat hard song to tab, at least getting the beats right.  I think that I
have it all right, and I hope it's not too hard to understand, please let me know if
you have any comments/corrections.  well, here it is:   (please rate)

intro played w/very fast strumming

e-----------------------------------------------------------|
B-----------------------------------------------------------|
G-----------------------------------------------------------|
D-(2-2-221-1-112-2-221-1-11)2-2-2-221-1-112-2-2-221-1-112~~-|
A-(2-2-222-2-222-2-222-2-22)2-2-2-222-2-222-2-2-222-2-222~~-|
E-(2-2-222-2-220-0-000-0-00)4-4-4-444-4-442-2-2-222-2-220~~-|
         repeat this^

intro cont'd (w/distortion)

e--------------------------------------------------------------|
B--------------------------------------------------------------|
G--------------------------------------------------------------|
D-(2-2-221-1-114-4-441-1-11)2-2-2-221-1-114-4-4-441-1-11222222-|
A-(2-2-222-2-222-2-222-2-22)2-2-2-222-2-222-2-2-222-2-22222222-|
E-(2-2-222-2-220-0-000-0-00)4-4-4-444-4-442-2-2-222-2-22000000-|
         repeat this^

verse 1 (same as the first intro, just softer)

chorus
[ Tab from: http://www.guitartabs.cc/tabs/r/relient_k/high_of_75_tab_ver_3.html ]
e-------------------------------------------------------------------|
B-------------------------------------------------------------------|
G----------------------99xxxxxxxxx8888866666999999999-(---44-33-44)-|
D-xxxxxxxxxx99xxxxxxxxx99xxxxxxxxx6666644444999999999-(22-44-11-22)-|
A-xxxxxxxxxx99xxxxxxxxx77xxxxxxxxx----------777777777-(22-22------)-|
E-xxxxxxxxxx77xxxxxxxxx-------------------------------(00---------)-|
                                                      repeat4x^ and
                                                 somewhat mute the 2ndx
                                                 repeat normal the 3rdx
chorus cont'd all piano                          somewhat mute the 4thx

bridge is intro/verse chord progression, but here is guitar 2's part:

e-----------------------------|
B-----------------------------|
G-------------9~~-------6~~---|     and then gt.2 play intro also
D-9~~---------9~~-------4~~---|
A-9~~---------7~~-------------|
E-7~~-------------------------|

e-------------|
B-------------|       repeat 4x and
G----44-33-44-|  somewhat mute the 2nd x
D-22-44-11-22-|  repeat normal the 3rd x
A-22-22-------|  somewhat mute the 4th x
E-00----------|

some more piano
outro is the chorus' chords repeated twice.

well, I hope I was able to get everything right.  enjoy!
Comments