Relient K - High Of 75 Chords & Tabs

 

High Of 75 Chords & Tabs

Relient K Chords & Tabs

Version: 1 Type: Bass Tab

High Of 75 Bass Tab

High of 75 - Relient K

Tabbed by: Drew Fish
e-mail: microfish89@yahoo.com

Tuning: MODIFIED! Tune the E string down half a step to an E flat. The rest of the 
stay in their standard tune.


Intro
G |---------------------------------------|
D |---------------------------------------|
A |--2-2-2-2------------------------------|
Eb|-----------1-1-1-1--5-5--3-3--1-1-1-1--|

Verse 1
We were talkin...
G |-------------------------------------------------------------------|
D |-------------------------------------------------------------------|
A |--2-2-2-2-2-2-2-2--------------------------------------------------|
Eb|------------------1-1-1-1-1-1-1-1-5-5-5-5-3-3-3-3-1-1-1-1-1-1-1-1--| (x2)

Pre-Chorus
Because on and off...
G |-----------------------------------------------------------------|
D |-----------------------------------------------------------------|
A |-----------------------------------------------------------------|
Eb|--1--3--0--1--1111333300001111--11--3330-0111--1111333300001111--|
[ Tab from: http://www.guitartabs.cc/tabs/r/relient_k/high_of_75_btab.html ]
Chorus
Now Iím sunny...
G |-----------------------------------------------|
D |-----------------------------------------------|
A |--2-----------------------2-----------------2--|
Eb|-----1--5--3--0--1--1--3-----1--5--3--1--3-----|

Verse 2 Intro
G |-----------|
D |-----------|
A |--2--4-----|
Eb|--------1--|

Verse 2
And the temperature...
G |-------------------------------------------------------------------|
D |-------------------------------------------------------------------|
A |--2-2-2-2-2-2-2-2--------------------------------------------------|
Eb|------------------1-1-1-1-1-1-1-1-5-5-5-5-3-3-3-3-1-1-1-1-1-1-1-1--|

(Pre-Chorus)
(Chorus. see note below)

Bass comes in at 0:12

Note: The last 2 times the song repeats the chorus, the bass DOES NOT play the first 
(from 1:57 to 2:11). Then when the bass does play, drop the very last note of the chorus (A 
fret 2)


Order
Intro
Verse 1
Pre-Chorus
Chorus
Verse 2 intro
Verse 2
Pre-Chorus
Chorus

Tuning is modified in this one. Tune the E string down half a step to an E flat. The 
of the strings stay in their standard tune.