Relient K - Hello Mcfly Chords & Tabs

 

Hello Mcfly Chords & Tabs

Relient K Chords & Tabs

Version: 2 Type: Bass Tab 0 ratings
1 star 2 stars 3 stars 4 stars 5 stars
comments

Hello Mcfly Bass Tab

Song: Hello McFly
Band: Relient k
Album: Relient k
Tabbed: Bobby 

	This is a very new, very great christian band.They sound like blink 182 a little. well here it is:

Intro/ between chous and verses

G|----------------------------
D|--------1-2-4----------4-2-1-
A|------2--------------2-------
E|-00-22----------00-22---------

Verses:
[ Tab from: http://www.guitartabs.cc/tabs/r/relient_k/hello_mcfly_btab_ver_2.html ]
G|--------------------------------
D|--------------------------------
A|---------77777777-99999999-777777-
E|-77777777------------------------

Chorus:

G|------------------------------------
D|------------------------------------
A|-----9----7--------9-xxx-7---------9-
E|-7-------------7--------------7------

G|------------------------
D|------------------------
A|----777----999---------8-
E|-777----999----777-999----

	Thats about all. Listen to Cd to get the rythym. If you dont have the cd, get it.

Sen requests,comments to ybbob182@hotmail.com
Comments