Relient K - Gibberish Chords & Tabs

 

Gibberish Chords & Tabs

Relient K Chords & Tabs

Version: 3 Type: Tab 0 ratings
1 star 2 stars 3 stars 4 stars 5 stars
comments

Gibberish Tab

   
lyrics included.  enjoy!

intro: guitar 1 (distorted)
e------------------------------------------------------------------->
B----------------------------------------------------------8888888-->
G-----------------9--9-------------7~~--77777777--9~~--9999--------->
D-11--12-12--9-9--------9-9--10-10---------------------------------->
A------------------------------------------------------------------->
E------------------------------------------------------------------->

intro: guitar 2 (distorted)
e------------------------------------------------------------------->
B------------------------------------------------------------------->
G-------------------------------------------------5~~--55555555555-->
D-11--12-12--9-9--11-11--6-6--7-7--4~~--44444444--5~~--55555555555-->
A-12--12-12--9-9--12-12--7-7--7-7--5~~--55555555--3~~--33333333333-->
D-11--12-12--9-9--11-11--6-6--7-7--4~~--44444444-------------------->

verse: guitar 2
e---------------------------------------------------------------->
B---------------------------------------------------------------->
G---5--------5--------5--------5--------5--------5--------5------>
D---5---3----5---5----5---3----5---5----5---3----5---5----5---3-->
A-3+----3--3+----5--3+----3--3+----5--3+----3--3+----5--3+----3-->
D-----3+-------5+-------3+-------5+-------3+-------5+-------3+--->
arg wu sentafinticate nar dunderford bida menti kosticated interserd
thorphilliate stinded yilla billa zay wentora yate

e----------------------->
B----------------------->
G-2xxxx----------------->
D-2xxxx5xxxx3xxxx5xxxx-->
A-0xxxx5xxxx3xxxx5xxxx-->
D------5xxxx3xxxx5xxxx-->
paravillintiniay, paravillintiniay

e------------------------------------>
B------------5---6------------5-6~~-->
G---5---5----5---5---5---5----5-5~~-->
D---5---5--2+--3+----5---5--2+--3~~-->
A-3+--3+-----------3+--3+------------>
D------------------------------------>
dorga orpha dorga billa dorga orpha stifaleare dorga orpha dorga billa
tonalation fonamere
[ Tab from: http://www.guitartabs.cc/tabs/r/relient_k/gibberish_tab_ver_3.html ]
chorus: guitar 1
e--------------------------------------------------------------------->
B---------6--\3-----------6--/8-----------6--\3-----------6--/8--\5~~->
G-5--\4-----------5--\4-----------5--\4-----------5--\4--------------->
D--------------------------------------------------------------------->
A--------------------------------------------------------------------->
D--------------------------------------------------------------------->

chorus: guitar 2
e--------------------------------------------------------------------->
B---------666-333---------666-------------666-333---------666--------->
G-555-444-555-222-555-444-555-----555-444-555-222-555-444-555--------->
D-555-555-333-000-555-555-333-555-555-555-333-000-555-555-333-555-2~~->
A-333-222---------333-222-----555-333-222---------333-222-----555-3~~->
D-----------------------------555-----------------------------555-2~~->
stop talking gibberish or just stop talking, stop talking gibberish or just
stop talking stop talking gibberish or just stop talking, stop talking
gibberish or just stop talking now

if I had one wish well I don't know what I'd wish for

e------------------------------------------------------------------->
B------------------------------------------------------------------->
G------------------------------------------------------------------->
D-------------------------------------------7------5------3------5-->
A-3xxxxxxx----------3xxxxxxx----------------7------5------3------5-->
D---------3xxxx5xxxx--------3xxxx5xxxx-7xxxx7-5xxxx5-3xxxx3-5xxxx5-->
but if I had a million zillion wishes I'd use one to let you know that
gibberish is not a nice way to talk to all your

verse 2: use verse 1 tab, it's the same up to the "paravillintiniay"
         part - after that, go to chorus (listen to the song, you'll
         know what I mean)
mork swax ippen reeby yufftabar higged quillip ernigrade du wellinshar lirp
crawn xyfa gourk jawinstabray venaldo urp paravillintiniay, paravillintiniay

repeat chorus

ends with: (no instruments)
friends
Comments