Relient K - Gibberish Chords & Tabs

 

Gibberish Chords & Tabs

Relient K Chords & Tabs

Version: 1 Type: Bass Tab 0 ratings
1 star 2 stars 3 stars 4 stars 5 stars
comments

Gibberish Bass Tab

Intro
G---------------------------------|
D--7--0---------------------------|
A----------3---3333333333333333---|
E-------0-------------------------|

Verse:
G-----------------|
D-----------------|
A-333------333----|3x
E-----111------333|

G------------------------------|
D------------------------------|
A--333-------------------------|
E------111-----1111111133333333|
[ Tab from: http://www.guitartabs.cc/tabs/r/relient_k/gibberish_btab.html ]
G-----------------|
D-----------------|
A-333------333----|
E-----111------333|


G---------|
D---------|
A-3-------|
E---1-1--3|

Chorus:
G-------------------|
D-------------------|
A--3----------------|
E-----3--1--3-------|x4

Bridge:
G-------------------|
D-------------------|
A--33333333---------|
E----------11113333-|x3

G----------------|
D----------------|
A000-------------|
E----333-111-333-|

Song order:
Introx1   versex1  chorusx1  bridgex1  versex1  chorusx1  bridgex1
Comments