Relient K - Getting Into You Chords & Tabs

 

Getting Into You Chords & Tabs

Relient K Chords & Tabs

Version: 6 Type: Tab 0 ratings
1 star 2 stars 3 stars 4 stars 5 stars
comments

Getting Into You Tab

   
intro: acoustic
e-------------------->
B---0---0---0-------->
G----1---1---1------->
D--2---2---2--------->
A---------0---------->
E-0---2-------2~~---->

verse 1:
e----------------------------------------------------------------------->
B---0---0---0--2-----0---0---0--2-----0---0---0--2-----0---0---0-------->
G----1---1---1--2-1---1---1---1--2-1---1---1---1--2-1---1---1---1------->
D--2---2---2--------2---2---2--------2---2---2--------2---2---2--------->
A---------0----------------0----------------0----------------0---------->
E-0---2-------2----0---2-------2----0---2-------2----0---2-------2~~---->
    when I made up my mind and my heart along with that to live not for
myself but yet for God somebody said do you know what you are getting
yourself into

e-------------------------------------------------------->
B---0---0---0--2-----0---0---0--2-----0---0---0--2------->
G----1---1---1--2-1---1---1---1--2-1---1---1---1--2-1---->
D--2---2---2--------2---2---2--------2---2---2----------->
A---------0----------------0----------------0------------>
E-0---2-------2----0---2-------2----0---2-------2-------->
    when I finally ironed out all of my priorities and asked God to remove
the doubt that makes me so unsure of these things I ask myself I ask myself
do you know what you are getting yourself into

chorus:
e-0-0-00000-0-0-00000-0-0-00000-000000->
B-0-0-00000-4-4-44444-0-0-00000-000000->
G-1-1-11111-4-4-44444-2-2-22222-222222->
D-2-2-22222-4-4-44444-4-4-44444-222222-> repeat
A-2-2-22222-2-2-22222-4-4-44444-000000->
e-0-0-00000-0-0-00000-0-0-00000-000000->
      I'm getting into you because you got to me in a way words can't
describe I'm getting into you because I've got to be your essential to
survive I'm gonna love you with my
[ Tab from: http://www.guitartabs.cc/tabs/r/relient_k/getting_into_you_tab_ver_6.html ]
fill in: only after choruses one and four
e------------------------------------>
B---0---0---0--2-----0---0---0------->
G----1---1---1--2-1---1---1---1------>
D--2---2---2--------2---2---2-------->
A---------0----------------0--------->
E-0---2-------2----0---2-------2~~--->
life...

verse 2:
e-------------------------------------------------------->
B---0---0---0--2-----0---0---0--2-----0---0---0--2------->
G----1---1---1--2-1---1---1---1--2-1---1---1---1--2-1---->
D--2---2---2--------2---2---2--------2---2---2----------->
A---------0----------------0----------------0------------>
E-0---2-------2----0---2-------2----0---2-------2-------->
    when you looked at me and said I kind of view you as a son and for one
second our eyes met and I met that with a question: do you know what you
are getting yourself into

repeat chorus

bridge:
E------------------------------------------------------>
B---------------0---------------0---------------------->
G---9---8---6----1--9---8---6----1--9---8---6---------->
D----9---9---7-2-----9---9---7-2-----9---9---7-2~~----->
A--7---9---7-------7---9---7-------7---9---7---2~~----->
E-9---7---5---0---9---7---5---0---9---7---5----0~~----->
   I've been a liar and I'll never amount to the kind of person you deserve
to worship you, you say you will not dwell on what I did but rather what I
do you said I love you and that's what you are getting yourself into

repeat chorus twice

outro:
E-------------------------------0~~---->
B---0----0----0-----2~~---------0~~---->
G----1----1----1--------2--1~~--1~~---->
D--2----2----2------------------2~~---->
A----------0--------------------2~~---->
E-0---2---------2~~-------------0~~--->
you said I love you and that's what you are getting yourself into

NOTE
distorted guitar plays last chorus along with accoustic
Comments