Relient K - Getting Into You Chords & Tabs

 

Getting Into You Chords & Tabs

Relient K Chords & Tabs

Version: 3 Type: Tab 0 ratings
1 star 2 stars 3 stars 4 stars 5 stars
comments

Getting Into You Tab

   
Relient K

Getting Into You

Haley-drmmrsgirl@aol.com

Intro:

e---------------------
B-----0----0-----0----
G------1----1-----1---
D----2----2----2------
A-------------0-----2-
E--0-----2------------

Verse:
[ Tab from: http://www.guitartabs.cc/tabs/r/relient_k/getting_into_you_tab_ver_3.html ]
e------------------
B---0---0---0--2---
G----1---1---1--2-1
D--2---2---2-------
A---------0---2----
E-0---2------------

repeat how many x u want ??

Chorus:

E B A F# repeat

Chords:

  E   B   A   F#

e-0-|-0-|-0-|-0-|

B-0-|-0-|-0-|-0-|

G-1-|-8-|-6-|-3-|

D-2-|-9-|-7-|-4-|

A-2-|-9-|-7-|-4-|

E-0-|-7-|-5-|-2-|
Comments