Relient K - Foward Motion Chords & Tabs

 

Foward Motion Chords & Tabs

Relient K Chords & Tabs

Version: 1 Type: Tab 3 ratings
1 star 2 stars 3 stars 4 stars 5 stars
comments

Foward Motion Tab

Song:Foward Motion
Artist:Relient K
Album:Two Lefts Don't Make A Right, But Three Do
Tunning: Standard

pm=Palm Muted

Intro 
E-------------------------------------------------------------|
B-------------------------------------------------------------|
G-----6-8-6-8-6----5-6-5-6-5----10-8-10-8----10-13-10-13-10---|
D--88-----------66-----------88-----------11------------------|
A-------------------------------------------------------------|
E-------------------------------------------------------------|
pm.............................................................

Gtr 2
E-------------------------------------------------------------|
B-------------------------------------------------------------|
G---------------------------8-------------11-(The Last time)--|
D--8------------6-----------8-------------11------------------|
A--8------------6-----------6-------------9-------------------|
E--6------------4---------------------------------------------|

Verse
(Whoa, I've been....)
E----------------------------------------|
B----------------------------------------|
G--66666666------------------------------|
D--66666666-66666666-88888888-44444444---|
A--44444444-66666666-88888888-44444444---|
E-----------44444444-66666666-22222222---|

Pre-Chorus
(I got, evicted now I'm living......)
E----------------------------------------|
B------6-7-6---6-7-6-----6-7-6---6-7-6---|(You do it once and then u 
G----6-----------------6-----------------|palm mute it once)
D------------------------------4---------|
A--4-------------------------------------|
E------------4-------6-------------------|
[ Tab from: http://www.guitartabs.cc/tabs/r/relient_k/foward_motion_tab.html ]
(When crashes occur.....)
E-------------------------------------------|
B-------------------------------------------|
G------------88888888-----------8888--------|
D--8888-6666-88888888-8888-6666-8888-4444---|
A--8888-6666-66666666-8888-6666-6666-4444---|
E--6666-4444----------6666-4444------2222---|
PM                                   ....

(To experience......)
E---------------------------|
B---------------------------|
G--6666---------------------|
D--6666-6666-44444444--(x2)-|
A--4444-6666-44444444-------|
E-------4444-22222222-------|

Chorus
E---------------------------------------------------------------------
B------6-----6-----6-----6--------------------------------------------
G----6-----6-----6-----7---------6666----------------6666-------------
D--------------------8------(x2)-6666-6666-8888-4444-6666-6666-8888---
A--4-----------------------------4444-6666-8888-4444-4444-6666-8888---
E--------4-----6----------------------4444-6666-2222------4444-6666---
pm                               ..................................
------------------------------------|
------------------------------------|
--66-66-66-66-6-6-66-66-66-66-6-6---|
--66-66-66-66-6-6-66-66-66-66-6-6---|
--44-33-44-33-4-3-44-33-44-33-4-3---|
------------------------------------|

You repeat everything except the intro and then they play the 
chorus one more time like this:
E-------------------------------------------------------------|
B-------------------------------------------------------------|
G--6666---------------------66-66-66-66-6-6-66-66-66-66-6-6---|
D--6666-6666-8888-4444-(x4)-66-66-66-66-6-6-66-66-66-66-6-6---|
A--4444-6666-8888-4444------44-33-44-33-4-3-44-33-44-33-4-3---|
E-------4444-6666-2222----------------------------------------|

Thaz it, enjoy!
Comments