Relient K - Forward Motion Chords & Tabs

 

Forward Motion Chords & Tabs

Relient K Chords & Tabs

Version: 1 Type: Tab 0 ratings
1 star 2 stars 3 stars 4 stars 5 stars
comments

Forward Motion Tab

Jon Mallory
thejcrew@charter.net

I'm preety sure this is 100% correct.Mute 'D" string.

|----------------------------------------------------------------------|
|----------------------------------------------------------------------|
|----6---8---6---8---6-----6---5---6---5---6-----8---10---8---10---8---|
|8-8---8---8---8---8---6-6---6---6---6---6---8-8---8----8---8----8-----|
|----------------------------------------------------------------------|
|----------------------------------------------------------------------|

----------------------------------|
----------------------------------|
------10----13----10----11----10--|
11-11----11----11----11----11-----|
----------------------------------|
----------------------------------|

Guitar 2 over intro
|----------------------------|
|----------------------------|
|-------------------------8--|
|-8-----------6-----------8--|
|-8-----------6-----------6--|
|-6-----------4--------------|
      (Let note ring)
[ Tab from: http://www.guitartabs.cc/tabs/r/relient_k/forward_motion_tab.html ]
Verse(stacoto)
|---------------------------------------------------------------------------|
|---------------------------------------------------------------------------|
|-6-6-6-66-6-6-6-66---------------------------------------------------------|
|-6-6-6-66-6-6-6-66--6-6-6-66-6-6-6-66--8-8-8-88-8-8-8-88--4-4-4-44-4-4-4-44|
|-4-4-4-44-4-4-4-44--6-6-6-66-6-6-6-66--8-8-8-88-8-8-8-88--4-4-4-44-4-4-4-44|
|--------------------4-4-4-44-4-4-4-44--6-6-6-66-6-6-6-66--2-2-2-22-2-2-2-22|
                                                                    Repeat...

THEN AFTER TWO TIMES PLAY IT IN 8 NOTES THEN AFTER THREE TIMES PLAY IN 8 NOTES AND PALM MUTE.

Prechorus
|---------------------------|--------------------------------------------|
|---------------------------|--------------------------------------------|
|-------------------88888888|-------------------88888888-1010101010101010|
|-88888888-66666666-88888888|-88888888-66666666-88888888-1010101010101010|
|-88888888-66666666-66666666|-88888888-66666666-66666666-8-8-8-8-8-8-8-8-|
|-66666666-44444444---------|-66666666-44444444--------------------------|

Chorus
|-----------------------------------|
|-----------------------------------|
|-66666666-66666666-----------------|
|-66666666-66666666-4444444444444444|
|-44444444-33333333-4444444444444444|
|-------------------2222222222222222|

Enjoy.
Comments