Relient K - For The Moments I Feel Faint Chords & Tabs

 

For The Moments I Feel Faint Chords & Tabs

Relient K Chords & Tabs

Version: 1 Type: Bass Tab 0 ratings
1 star 2 stars 3 stars 4 stars 5 stars
comments

For The Moments I Feel Faint Bass Tab

----------------------------------------------------------------------------
		FOR THE MOMENTS I FEEL FAINT - RELIENT K
----------------------------------------------------------------------------

Tabbed By : ABBI
e-mail: AMENEAR@WIREFIRE.COM

this song doesn't really have a bass line but i went along with the cords and
added some fills to go along with it

Tuning:standard

intro:

G|------------------------------------------------------|
D|------------------------------------------------------|
A|------------0-----4------2--------------4------2-0----|
E|------0------------------------0-------------------4-2|

verse 1:

G|-----------------------------------------------------------------------|
D|-----------------------------------------------------------------------|
A|------0------4-----2-----------0----4-6-4-2-------------0---4---2-0----|
E|0------------------------0------------------------0-----------------4-2|

chorus:

G|-----------------------------------------------------------------------|
D|-----------------------------------------------------------------------|
A|------0------4-----2-----------0----4-6-4-2-------------0---4---2-0----|
E|0------------------------0------------------------0-----------------4-2|

verse 2:
[ Tab from: http://www.guitartabs.cc/tabs/r/relient_k/for_the_moments_i_feel_faint_btab.html ]
G|-----------------------------------------------------------------------|
D|-----------------------------------------------------------------------|
A|------0------4-----2-----------0----4-6-4-2-------------0---4---2-0----|
E|0------------------------0------------------------0-----------------4-2|

chorus:

G|-----------------------------------------------------------------------|
D|-----------------------------------------------------------------------|
A|------0------4-----2-----------0----4-6-4-2-------------0---4---2-0----|
E|0------------------------0------------------------0-----------------4-2|

bridge: (i think i can't, i think i can't)

G|-------------------------------------------------------------------------|
D|----------------------------------------------2--------------------------|
A|--------0-0------4---3---------0-0-----4--3------3-----0-----4----2------|
E|0-0---------------------0-0-------------------------0--------------------|

chorus:

G|-----------------------------------------------------------------------|
D|-----------------------------------------------------------------------|x3
A|------0------4-----2-----------0----4-6-4-2-------------0---4---2-0----|
E|0------------------------0------------------------0-----------------4-2|

outro:

G|------|
D|------|
A|------|
E|--0---|
============================================================================
Comments