Relient K - Falling Out Chords & Tabs

 

Falling Out Chords & Tabs

Relient K Chords & Tabs

Version: 6 Type: Tab 0 ratings
1 star 2 stars 3 stars 4 stars 5 stars
comments

Falling Out Tab

Falling Out - Relient K
E-mail: stealthunknown7@hotmail.com
Tabbed By: Black Label

Intro:
e|----------------------------------|
B|----------------------------------|
G|-7-7-7-7-8-8-8-8-7-7-7-7-6-6-5-5--|
D|--8-8-8-8-8-8-8-8-8-8-8-8-8-8-8-8-|
A|----------------------------------|
E|----------------------------------|
NO LYRICS




Pre-Verse:
e|---X8|---X8|---X8|---X4|---X4|
B|-----|-----|-----|-----|-----|
G|-3---|-5---|-8---|-----|-----|
D|-3---|-5---|-8---|-5---|-3---|
A|-1---|-3---|-6---|-5---|-3---|
E|-----|-----|-----|-3---|-1---|
NO LYRICS




Verse 1:(X2)
e|---X8|---X8|---X8|---X4|---X4|
B|-----|-----|-----|-----|-----|
G|-----|-----|-----|-----|-----|
D|-3---|-5---|-8---|-----|-----|
A|-1---|-3---|-6---|-5---|-3---|
E|-----|-----|-----|-3---|-1---|
  xxxxx xxxxx xxxxx xxxxx xxxxx
I'm falling out of grace with the world
They say I've lost my midas touch what turned to gold now turns
to rust
I'm falling out of line with all the stars
That flood my dreams with their guitars and magazines




Chorus:
e|----------|-----------------|
B|----------|-----------------|
G|-7-7--7-7-|-8-8-8-8-8-8-8-8-|
D|-7-7--7-7-|-8-8-8-8-8-8-8-8-|
A|-5-5--5-5-|-6-6-6-6-6-6-6-6-|
E|----------|-----------------|

e|-----------------|-----------------|
B|-----------------|-----------------|
G|-3-3-3-3-3-3-3-3-|-----------------|
D|-3-3-3-3-3-3-3-3-|-3-3-3-3-3-3-3-3-|
A|-1-1-1-1-1-1-1-1-|-3-3-3-3-3-3-3-3-|
E|-----------------|-1-1-1-1-1-1-1-1-|
Face down this carpet tastes like coffee grounds ground into my
face now...
And every angle's covered with just another...





Pre-Verse:
e|---X8|---X8|---X8|---X4|---X4|
B|-----|-----|-----|-----|-----|
G|-3---|-5---|-8---|-----|-----|
D|-3---|-5---|-8---|-5---|-3---|
A|-1---|-3---|-6---|-5---|-3---|
E|-----|-----|-----|-3---|-1---|
NO LYRICS



Verse 1:(X2)
e|---X8|---X8|---X8|---X4|---X4|
B|-----|-----|-----|-----|-----|
G|-----|-----|-----|-----|-----|
D|-3---|-5---|-8---|-----|-----|
A|-1---|-3---|-6---|-5---|-3---|
E|-----|-----|-----|-3---|-1---|
  xxxxx xxxxx xxxxx xxxxx xxxxx
I'm falling out of style with the current way things are
The things that make conforming hard
I'm falling out of control and you just can't stop me now
I'll fight as long as time allows



Chorus:
e|----------|-----------------|
B|----------|-----------------|
G|-7-7--7-7-|-8-8-8-8-8-8-8-8-|
D|-7-7--7-7-|-8-8-8-8-8-8-8-8-|
A|-5-5--5-5-|-6-6-6-6-6-6-6-6-|
E|----------|-----------------|

e|-----------------|-----------------|
B|-----------------|-----------------|
G|-3-3-3-3-3-3-3-3-|-----------------|
D|-3-3-3-3-3-3-3-3-|-3-3-3-3-3-3-3-3-|
A|-1-1-1-1-1-1-1-1-|-3-3-3-3-3-3-3-3-|
E|-----------------|-1-1-1-1-1-1-1-1-|
Face down this carpet tastes like coffee grounds ground into my
face now
And every angle's covered with just another band-aid...


[ Tab from: http://www.guitartabs.cc/tabs/r/relient_k/falling_out_tab_ver_6.html ]
Verse 2:
e|--X16|--X16|--X16|--X16|
B|-----|-----|-----|-----|
G|-3---|-5---|-----|-----|
D|-3---|-5---|-3---|-5---|
A|-1---|-3---|-3---|-5---|
E|-----|-----|-1---|-3---|
I'm out here way beyond
A shadow of a doubt
And I know I'm never falling out
Of favor with you..



Verse 2:
e|--X16|--X16|--X16|--X16|
B|-----|-----|-----|-----|
G|-3---|-5---|-----|-----|
D|-3---|-5---|-3---|-5---|
A|-1---|-3---|-3---|-5---|
E|-----|-----|-1---|-3---|
I'm out here way beyond
A shadow of a doubt
And I know I'm never falling out
Of favor with you..




Piano Guitar Tab:
e|-10--10--10--10--11--11--11--11--9---9---8---8----|
B|---11--11--11--11--11--11--11--11--11--11--11--11-|
G|--------------------------------------------------|
D|--------------------------------------------------|
A|--------------------------------------------------|
E|--------------------------------------------------|
NO LYRICS



Verse 3:
e|---X8|---X8|---X8|
B|-----|-----|-----|
G|-----|-----|-----|
D|-6---|-5---|-3---|
A|-6---|-5---|-3---|
E|-4---|-3---|-1---|
I won't think twice or even three times. About...


Bridge:
   e|-X4|-X3|-X6|-X8|-X8|-X4|-X2|-------|-X8|-X8|-X8|
   B|---|---|---|---|---|---|---|-------|---|---|---|
   G|-3-|-2-|---|-8-|---|-3-|-2-|-------|-8-|-3-|---|
   D|-3-|-2-|-5-|-8-|-3-|-3-|-2-|-------|-8-|-3-|-3-|
   B|-1-|-0-|-5-|-6-|-3-|-1-|-0-|-55--55|-6-|-1-|-3-|
   E|---|---|-3-|---|-1-|---|---|-11--11|---|---|-1-|      
About taking a gamble with you... xx  xx
Cause with my life you have been so kind..
I take all my comfort from you..
Face down this carpet tastes like coffee grounds ground into my...




Chorus:
e|----------|-----------------|
B|----------|-----------------|
G|-7-7--7-7-|-8-8-8-8-8-8-8-8-|
D|-7-7--7-7-|-8-8-8-8-8-8-8-8-|
A|-5-5--5-5-|-6-6-6-6-6-6-6-6-|
E|----------|-----------------|

e|-----------------|-----------------|
B|-----------------|-----------------|
G|-3-3-3-3-3-3-3-3-|-----------------|
D|-3-3-3-3-3-3-3-3-|-3-3-3-3-3-3-3-3-|
A|-1-1-1-1-1-1-1-1-|-3-3-3-3-3-3-3-3-|
E|-----------------|-1-1-1-1-1-1-1-1-|
face now..
And every angle's covered with just another... band-aid.




Verse 2:
e|--X16|--X16|--X16|--X16|
B|-----|-----|-----|-----|
G|-3---|-5---|-----|-8---|
D|-3---|-5---|-5---|-8---|
A|-1---|-3---|-5---|-6---|
E|-----|-----|-3---|-----|
I'm out here way beyond
A shadow of a doubt
And I know I'm never falling out
Of favor with you


Verse 2:
e|--X16|--X16|--X16|--X16|
B|-----|-----|-----|-----|
G|-3---|-5---|-----|-8---|
D|-3---|-5---|-5---|-8---|
A|-1---|-3---|-5---|-6---|
E|-----|-----|-3---|-----|
I'm out here way beyond
A shadow of a doubt
And I know I'm never falling out
Of favor with you



Outro:
e|---X8|---X8|---X8|---X4|---X4|
B|-----|-----|-----|-----|-----|
G|-3---|-5---|-7---|-----|-----|
D|-3---|-5---|-7---|-5---|-3---|
A|-1---|-3---|-5---|-5---|-3---|
E|-----|-----|-----|-3---|-1---|

e|---X8|---X8|---X8|---X4|---X4|
B|-----|-----|-----|-----|-----|
G|-3---|-5---|-8---|-----|-----|
D|-3---|-5---|-8---|-5---|-3---|
A|-1---|-3---|-6---|-5---|-3---|
E|-----|-----|-----|-3---|-1---|
NO LYRICS
Comments