Relient K - Falling Out Chords & Tabs

 

Falling Out Chords & Tabs

Relient K Chords & Tabs

Version: 4 Type: Tab 0 ratings
1 star 2 stars 3 stars 4 stars 5 stars
comments

Falling Out Tab

Falling Out-Relient K

Tabbed by Alex Skalany aim-BadgerLord221 email-mirrabmx2000@yahoo.com

Tuning-EADGBE

This is my first tab and i got it as accurate as possible. 
If there are any mistakes i.m. or email me. THANX!

x-palm mute

INTRO

|----------------------------------------|
|-3-3-3-3-4-4-4-4-3-3-3-3-3-3-1-1--------|
|--3-3-3-3-3-3-3-3-3-3-3-3-3-3-3-3-------|
|----------------------------------------|
|----------------------------------------|
|----------------------------------------|

After Intro Thingy

|-----|------|-----|-----|------|--------|
|-----|------|-----|-----|------|--------|
|-----|------|-----|-----|------|--------|
|-3-X8|--5-X8|-8-X8|-----|------|--------|
|-1---|--3---|-6---|-4-X4|-3-X4-|--------|
|-----|------|-----|-2---|-1----|--------|

Verse (PLAY ALL OF THIS PALM MUTED!)

|-----|-----|-----|-----|-----|---------------|
|-----|-----|-----|-----|-----|---------------|
|-----|-----|-----|-----|-----|---------------|
|-3-X8|-5-X8|-8-X8|-----|-----|---------------|
|-1---|-3---|-6---|-4-X4|-3-X4|---------------|
|-----|-----|-----|-2---|-1---|---------------|

Chorus

|----------------------------------------------|
|----------------------------------------------|
|----------------------------------------------|
|-77--77-88888888-33333333---------------------|
|-55--55-66666666-11111111-33333333------------|
|--------------------------11111111------------|
[ Tab from: http://www.guitartabs.cc/tabs/r/relient_k/falling_out_tab_ver_4.html ]
Bridge                         
                       End 1     End 2           
|------|------|------|-------|-------------------------|
|------|------|------|-------|-------------------------|
|------|------|------|-------|-------------------------|
|-3-X16|-5-X16|------|--8-X16|----888-888-888----------|
|-1----|-3----|-5-X16|--6----|----666-666-666----------|
|------|------|-3----|-------|-------------------------|

Bit after the piano

------|-----|-----|-----|-----|-----|-----|-----|-----|-----|-----|
------|-----|-----|-----|-----|-----|-----|-----|-----|-----|-----|
------|-----|-----|-----|-----|-----|-----|-----|-----|-----|-----|
------|-----|-----|-----|-3-X4|-3-X4|-----|-8-X8|-----|-3-X4|-3-X4|
-3-X3-|-6-X8|-5-X8|-3-X8|-1---|-0---|-5-X8|-6---|-3-X8|-1---|-0---|
-1----|-4---|-3---|-1---|-----|-----|-3---|-----|-1---|-----|-----|
       xxxxxxxxxxxxxxxxx

|--------|-----|-----|-----|-----------------|
|--------|-----|-----|-----|-----------------|
|--------|-----|-----|-----|-----------------|
|--77--77|-8-X8|-3-X8|-----|-----------------|
|--55--55|-6---|-1---|-3-X8|-----------------|
|--------|-----|-----|-1---|-----------------|
   xx  xx

Outro

|-----|-----|-----|------|-----------------------|
|-----|-----|-----|------|-----------------------|
|-----|-----|-----|------|-----------------------|
|-3-X8|-5-X8|-8-X8|--8~~~|-----------------------|
|-1---|-3---|-6---|--6~~~|-----------------------|
|-----|-----|-----|------|-----------------------|


SONG ORDER

Intro X1
After Intro Thingy X2
Verse X2 (Intro is played in the backround twice)
Chorus X2
After Intro Thingy X1 (Intro played in backround once)
Verse X2 (Intro is played in backround twice)
Chorus X2
Bridge X2 (second time play End 2)
Piano part
Bit after the piano X1
Chorus X1
Bridge X2 (second time play end 2)
After Intro Thingy (intro is played twice in backround)
Outro X1

Thats it! 
Hope you liked it. Be looking for other tabs by me.
Right now I'm working on "Welcome to Paradise" and "Come as you are".

Thanx again. BYE!
(RELIENT K ROCK MY WORLD!!!!!!!!!!!!)
Comments