Relient K - Falling Out Chords & Tabs

 

Falling Out Chords & Tabs

Relient K Chords & Tabs

Version: 2 Type: Tab 0 ratings
1 star 2 stars 3 stars 4 stars 5 stars
comments

Falling Out Tab

 
Intro.


E-------------------------------------------------------------------------------------------
A-------------------------------------------------------------------------------------------
D-------------------------------------------------------------------------------------------
G----3----3---3---3---3---3----3----3----3-----3----3-----3----3-----3---------------------
B--3---3----3---3---4---4---4-----4---3-----3----3-----3-----1----1----1--------------------
E-------------------------------------------------------------------------------------------


Verse

E----------------------------------------------------3-3-3-3----1-1-1-1-----------------------
A----1-1-1-1-1-1-1-1-3-3-3-3-3-3-3-3-6-6-6-6-6-6-6-6-5-5-5-5----3-3-3-3-------2 times---------
D----3-3-3-3-3-3-3-3-5-5-5-5-5-5-5-5-8-8-8-8-8-8-8-8-5-5-5-5----3-3-3-3-------------------------
G----3-3-3-3-3-3-3-3-5-5-5-5-5-5-5-5-8-8-8-8-8-8-8-8-------------------------------------------
B--------------------------------------------------------------------------then 2 times muted--
E----------------------------------------------------------------------------------------------




 Chorus
E---------------------------------------------------1-1-1-1-1-1-1-1------------------------------
A------55--55-----6-6-6-6-6-6-6-6--1-1-1-1-1-1-1-1--3-3-3-3-3-3-3-3-----------------------------
D------77--77-----8-8-8-8-8-8-8-8--3-3-3-3-3-3-3-3--3-3-3-3-3-3-3-3----2 times-------------------
G------77--77-----8-8-8-8-8-8-8-8--3-3-3-3-3-3-3-3-----------------------------------------------
B------------------------------------------------------------------------------------------------
E------------------------------------------------------------------------------------------------


After “Band-Aid”
E-----------------------------------------------------------3-3-3-3-3-3-3-3-3-3-3-3-3------------
A--1-1-1-1-1-1-1-1-1-1-1-1-1-1---3-3-3-3-3-3-3-3-3-3-3-3-3--5-5-5-5-5-5-5-5-5-5-5-5-5------------
D--3-3-3-3-3-3-3-3-3-3-3-3-3-3---5-5-5-5-5-5-5-5-5-5-5-5-5--5-5-5-5-5-5-5-5-5-5-5-5-5------------
G--3-3-3-3-3-3-3-3-3-3-3-3-3-3---5-5-5-5-5-5-5-5-5-5-5-5-5--------------------------------------
B------------------------------------------------------------------------------------------------
E------------------------------------------------------------------------------------------------


[ Tab from: http://www.guitartabs.cc/tabs/r/relient_k/falling_out_tab_ver_2.html ]
E------------------------------------------------------------------------------------------------
A---6-6-6-6-6-6-6-6-6-6-6-6-6-6--1-1-1-1-1-1-1-1-1-1-1-1-1-1---3-3-3-3-3-3-3-3-3-3-3-3-3-3-------
D---8-8-8-8-8-8-8-8-8-8-8-8-8-8--3-3-3-3-3-3-3-3-3-3-3-3-3-3---5-5-5-5-5-5-5-5-5-5-5-5-5-5-------
G---8-8-8-8-8-8-8-8-8-8-8-8-8-8--3-3-3-3-3-3-3-3-3-3-3-3-3-3---5-5-5-5-5-5-5-5-5-5-5-5-5-5-------
B------------------------------------------------------------------------------------------------
E------------------------------------------------------------------------------------------------


E--3-3-3-3-3-3-3-3-3-3-3-3-3-3-------------------------------------------------------------------
A--5-5-5-5-5-5-5-5-5-5-5-5-5-5----6-6-6-----6-6-6------6-6-6-------------------------------------
D--5-5-5-5-5-5-5-5-5-5-5-5-5-5----8-8-8-----8-8-8------8-8-8-------------------------------------
G---------------------------------8-8-8-----8-8-8------8-8-8-------------------------------------
B------------------------------------------------------------------------------------------------
E-----------------------------------------------------------------------------------------------


Play intro 2x’s
E--4-----------------------3-------------------1-------------------------------------------------
A--6---x8 palm muted-------5—x8 palm muted-----3-x8 palm muted------------------------------
D--6-----------------------5-------------------3------------------------------------------------
G-----------------------------------------------------------------------------------------------
B-----------------------------------------------------------------------------------------------
E------------------------------------------------------------------------------------------------

 Then play chours
Then verse 2 times but play this the last time

End here
E------------------------------------------------------------------------------------------------
A----1-1-1-1-1-1-1-1---3-3-3-3-3-3-3-3----6-6-6-6-6-6-6-6-6-6-6-6-6-6-6----1---------------------
D----3-3-3-3-3-3-3-3---5-5-5-5-5-5-5-5----8-8-8-8-8-8-8-8-8-8-8-8-8-8-8----3---------------------
G----3-3-3-3-3-3-3-3---5-5-5-5-5-5-5-5----8-8-8-8-8-8-8-8-8-8-8-8-8-8-8----3---------------------
B------------------------------------------------------------------------------------------------
E------------------------------------------------------------------------------------------------



Hey Eric   Allie   Spencer   and   Christy


Hope everyone out there likes Relient K
Comments