Relient K - Falling Out Chords & Tabs

 

Falling Out Chords & Tabs

Relient K Chords & Tabs

Version: 1 Type: Bass Tab 0 ratings
1 star 2 stars 3 stars 4 stars 5 stars
comments

Falling Out Bass Tab

Falling out by Relient K
Standard Tuning

(Intro)
G:---------------------------------|
D:-----------1(8)------------------|  x4
A:1(8)--3(8)-----------------------|
E:-----------------3-3-3-3--1-1-1-1|

G:--------------------|
D:--------------------|  x2
A:0-0--0-0--1(16)-----|
E:----------------1(8)|

Intro x3

G:--------------------|
D:--------------------|  x2
A:0-0--0-0--1(16)-----|
E:----------------1(8)|

G:--------------------------|
D:--------------------------|
A:1(16)--3(16)---------1(16)|
E:--------------3(16)-------|

G:----------------------------------------|
D:----------------------------------------|
A:1(16)--3(16)---------1-1-1--1-1-1--1-1-1|
E:--------------3(16)---------------------|
[ Tab from: http://www.guitartabs.cc/tabs/r/relient_k/falling_out_btab.html ]
  |--with piano--|
G:-------------------------|
D:----------1----5---------|
A:1----3-------------------|
E:--------------------1-1-1|

G:---------------------------|
D:-----------1(8)------------|
A:1--0-------------3(8)--1--0|
E:------3(8)-----------------|

G:--------------------|
D:--------------------|  x2
A:0-0--0-0--1(16)-----|
E:----------------1(8)|

G:--------------------------|
D:--------------------------|
A:1(16)--3(16)---------1(16)|
E:--------------3(16)-------|

G:----------------------------------------|
D:----------------------------------------|
A:1(16)--3(16)---------1-1-1--1-1-1--1-1-1|
E:--------------3(16)---------------------|

G:---------------------------------|
D:-----------1(8)------------------| 
A:1(8)--3(8)-----------------------|
E:-----------------3-3-3-3--1-1-1-1|

(Outro)
G:-------------------|
D:-----------1(16)---|
A:1(8)--3(8)-------1~|
E:-------------------|

Thanks, please rate after you learn it.
Tabbed by:
_TheBassist01_
Comments