Relient K - Failure To Excommunicate Chords & Tabs

 

Failure To Excommunicate Chords & Tabs

Relient K Chords & Tabs

Version: 1 Type: Bass Tab 0 ratings
1 star 2 stars 3 stars 4 stars 5 stars
comments

Failure To Excommunicate Bass Tab

Band: Relint K
Song: Failure to Excomunicate
Album: The Anatomy of the Tongue In Cheek (Whatever that means)

Tabbed by: Matt (MC) 
E-Mail: mlit37@yahoo.com

Yo all! this is a really hard song to play but if your fingers
are fast enough then you can get it.
"(#)" means "palm mute the note"

-Intro-
G|-----11-----11-----11-----11-----11-----11-----11-----11-|
D|-9-9----9-9----9-9----9-9----0-0----0-0----0-0----0-0----|
A|---------------------------------------------------------|
E|---------------------------------------------------------|

G|-----12-----12-----12-----12-----11-----11-----11-----11-|
D|-9-9----9-9----9-9----9-9----9-9----9-9----9-9----9-9----|
A|---------------------------------------------------------|
E|---------------------------------------------------------|x however many times
                                                                 they play it.
-PreChrous-
G|-------------------------------------------------------------|
D|-------------------------------------------------------------|
A|-------55555555----------22222222----------55555555----------|
E|-7--5-----------55555555----------33333333----------55555555-|
[ Tab from: http://www.guitartabs.cc/tabs/r/relient_k/failure_to_excommunicate_btab.html ]
-verse-(Part 2)
G|---------------------------------------------------------------|
D|---------------------------------------------------------------|
A|-----------------------------5555------------------------------|
E|-3--5--6-7-77-55-33-55-335555-----77-55-33-335555-(1)(1)-(1)(1)|

-Chorus-
G|---------------------------------------------------------------|
D|---------------------------------------------------------------|
A|--5-5----------------------5-5---------------------------------|
E|------5555-7-7--5-3333-5-5-----5555-7-7-5-3333-----------------|

Intro x however many times they play it.

-Verse 2-
G|---------------------------------------------------------------|
D|---------------------------------------------------------------|
A|-2222222----------55555555-00000000----------------------------|
E|---------33333333----------------------------------------------|x however many
                                                                times they do it.

PreChorus

In the second chorus they play it only with the guitar so don't play
the bass in the second chorus. And that should be it, try to get it down
as best as you can it took me like a month to get it perfectly right cause
they play the intro so freakin fast. well please rate this tab and if you
have any questions of course email me at mlit37@yahoo.com.
Thanks "Ultimate-Guitar"!! peace.
Comments