Relient K - Down In Flames Chords & Tabs

 

Down In Flames Chords & Tabs

Relient K Chords & Tabs

Version: 1 Type: Tab 0 ratings
1 star 2 stars 3 stars 4 stars 5 stars
comments

Down In Flames Tab

   
----------------------------------------------------------------------------
   			DOWN IN FLAMES - Relient K
----------------------------------------------------------------------------
Album: The Anatomy of the Tongue in Cheek
Label: Gotee Records
Tabbed by: mmmskittles
Email: skemo_the_fish@hotmail.com		

Tuning: Standard

| /  slide up
| \  slide down
| h  hammer-on
| p  pull-off
| ~  let ring
| +  harmonic
| x  Mute note
| *  Palm mute

hey everybody. this song is pretty freakin awesome so i tabbed it out for ya. i'm
not quite sure about the end of the chorus or the end of the song but the rest of
the tab should be pretty accurate.

  Intro
e|-------------------------------------------------------------------------|
B|-11-11-9-9-11-11-9-9-11--8-8-9-9-8-8-9-9-8--11-11-9-9-11-11-9-9-11-------|
G|-8--8--8-8-8--8--8-8-8---8-8-8-8-8-8-8-8-8--8--8--8-8-8--8--8-8-8--8-8-8-|
D|-----------------------------------------(x3)----------------------8-8-8-|
A|-------------------------------------------------------------------6-6-6-|
E|-------------------------------------------------------------------------|

e|-------------------------------------------------------------------------|
B|-------------------------------------------------------------------------|
G|-8-xx-8-8--7-7-xx-7-7--8-8-xx-8-8--11-11-xxx-11-10-xxx-10----------------|
D|-8-xx-8-8--8-8-xx-8-8--8-8-xx-8-8--11-11-xxx-11-10-xxx-10----(x2)--------|
A|-6-xx-6-6--5-5-xx-5-5--6-6-xx-6-6--9--9--xxx-9--8--xxx-8-----------------|
E|-------------------------------------------------------------------------|

  Verse
e|------------------------------------------|
B|------------------------------------------|
G|-88888888--------------------1111-xx-1010-|
D|-88888888-88888888-999999999-1111-xx-1111-|
A|-66666666-88888888-999999999-9-9--xx-8-8--|
E|----------66666666-777777777--------------|
   ******** ******** *********
e|----------------------------------------------|
B|----------------------------------------------|
G|-88888888--------------------1111111110101010-|
D|-88888888-88888888-99999999--1111111111111111-|
A|-66666666-88888888-99999999--9-9-9-9-8-8-8-8--|
E|----------66666666-77777777-------------------|
   ** **    ** **    ** **     * *   * * 
e|-------------------------------|
B|-------------------------------|
G|-4-4-4444-6-6-6666----------5~-|
D|-4-4-4444-6-6-6666-4-4-4444-5~-|
A|-2-2-2222-4-4-4444-4-4-4444-3~-|
E|-------------------2-2-2222----|
[ Tab from: http://www.guitartabs.cc/tabs/r/relient_k/down_in_flames_tab.html ]
  Pre-Chorus
e|------------------------------------------------------------|
B|------------------------------------------------------------|
G|-4-44444666666667777777777777-44--------------44------------|
D|-4-44444666666667777777777777-44-4-4444444444-44-4-44444444-|
A|-2-22222444444445555555555555-22-4-4444444444-22-4-44444444-|
E|---------------------------------2-2222222222----2-22222222-|
     **************************
  Chorus
e|---------------------------------------------------|
B|---------------------------------------------------|
G|-8-8888888-----------11-11111111111111-------------|
D|-8-8888888-9-9999999-11-11111111111111-8-88888888--|
A|-6-6666666-9-9999999-9--9-9-9-9-9-9-9--8-88888888--|
E|-----------7-7777777-------------------6-66666666--|

e|-------------------------------------------------------------------------|
B|-------------------------------------------------------------------------|
G|-----------11-11111111111111-8-8888-6-6666---------5~--------------------|
D|-9-9999999-11-11111111111111-8-8888-6-6666-------------------------------|
A|-9-9999999-9--9-9-9-9-9-9-9--6-6666-4-4444--10~-6~-----------------------|
E|-7-7777777----------------------------------8----------------------------|
     *******    * * * * * * *    ****   ****

(the pre-chorus also = the post-chorus)

  Solo (Lead Guitar)
e|-------------6-----------------------6-----6---6-------------6-----------|
B|-6h7-7-6h7 7---7-7-6h7-7-6h7-7-6h7-7---7-7---7---6h7-7-6h7-7---7-7-6h7-7-|
G|-------------------------------------------------------------------------|
D|-------------------------------------------------------------------------|
A|-------------------------------------------------------------------------|
E|-------------------------------------------------------------------------|

e|-------------6-|
B|-6h7-7-6h7-7---|
G|---------------|
D|---------------|
A|---------------|
E|---------------|

  Guitar 2:
e|-------------------------------------------------------------------------|
B|-------------------------------------------------------------------------|
G|-11------------------11------------------11------------------11----------|
D|-11-1111-99-13-1111--11-1111-99-13-1111--11-1111-99-13-1111--11-1111-99--|
A|-9--1111-99-13-1111--9--1111-99-13-1111--9--1111-99-13-1111--9--1111-99--|
E|----9-9--77-11-9-9------9-9--77-11-9-9------9-9--77-11-9-9------9-9--77--|

Then play it all over again, except skip the palm muted part of the verse.

Ending (acoustic)

e|-2-2-222-2-22-2222-2-2-222-222-4444-|
B|-4-4-444-2-22-2222-4-4-444-222-6666-|
G|-4-4-444-3-33-3333-4-4-444-333-6666-|
D|-4-4-444-4-44-4444-4-4-444-444-6666-|
A|-2-2-222-4-44-4444-2-2-222-444-4444-|
e|-2-2-222-2-22-2222-2-2-222-222-4444-|

e|-7-7-777-6-66-6666-5-5-555-4-44-4444-2-2-222-2-22-2222-2-2-222-222-4444--|
B|-7-7-777-6-66-6666-5-5-555-4-44-4444-4-4-444-2-22-2222-4-4-444-222-6666--|
G|-8-8-888-7-77-7777-6-6-666-5-55-5555-4-4-444-3-33-3333-4-4-444-333-6666--|
D|-9-9-999-8-88-8888-7-7-777-6-66-6666-4-4-444-4-44-4444-4-4-444-444-6666--|
A|-9-9-999-8-88-8888-7-7-777-6-66-6666-2-2-222-4-44-4444-2-2-222-444-4444--|
E|-7-7-777-6-66-6666-5-5-555-4-44-4444-2-2-222-2-22-2222-2-2-222-222-4444--|

repeat.

============================================================================
Comments