Relient K - Down In Flames Chords & Tabs

 

Down In Flames Chords & Tabs

Relient K Chords & Tabs

Version: 1 Type: Bass Tab 0 ratings
1 star 2 stars 3 stars 4 stars 5 stars
comments

Down In Flames Bass Tab

Intro
G----------------------------			
D----------------------------
A--------6-6-6--2-2-2--6-6-6-
E-2-2-2----------------------
Intro 
G------------------------------------
D------------------------------------ Repeat 2x
A-6-6-6-6--1-1-1-1--2-2-2-2--9-9-8-8-
E------------------------------------
Verses 1 and 2
G------------------------------------------------------------
D------------------------------------------------------------
A-6----2-----6----2-------2-2-20204-4-4040-------------3hold-
E----6-----2----6----2-1-------------------------2-2-2020----
Bridge
G-------------------------------------------------------------------
D-------------------------------------------------------------------
A-2-2222224-444444-5-555555552-2---------2-2----------------------
E-------------------------------------------------2-2-2-------2-2-2-
Chorus
G-------------------------------------------------------------------------------------------------
D-------------------------------------------------------------------------------------------------
A-6-66-6-66-6-66-6-66----2-22-2-22-2-22-2-22------------------------------------------------------
E---------------------------------------------------------2-22-2-22-2-22-2-226-66-6-66-6-66-6-66-
Chorus
G-----------------------------------
D----------------------------------- Go back to bridge to end chorus
A-2----2--------------6-6-4-4-3hold-
E------------2----2-----------------
Instrumental Ride
G-----------------
D----------------- Repeat 4x
A----04--02--040-
E-2---------------
Verse 2
Bridge 
Chorus
Instrumental
Ending-Below (play with a pick):
G-----------------------------------------------------------------------------------
D-----------------------------------------------------------------------------------
A-6-6-60605-5-50504-4-40403-3-30302-2-2020--------------------------2-2-20204-4-5-5-
E---------------------------------------------------------2-2-2020------------------
[ Tab from: http://www.guitartabs.cc/tabs/r/relient_k/down_in_flames_btab.html ]
Comments