Relient K - Collage Kids Chords & Tabs

 

Collage Kids Chords & Tabs

Relient K Chords & Tabs

Version: 2 Type: Tab 0 ratings
1 star 2 stars 3 stars 4 stars 5 stars
comments

Collage Kids Tab

Song: Collage kids
Artist: Relienk K
Sent by: me, Distortionfreak (Cause I love the sound of distortion)        

I played this song over and over until it sounded exactly like the real
song, and if you think this is wrong, rush to the hospital because you are ill.  

intro        Some one please help us as collage kids...
e-----------------------------------------------------------------------------
B-----------------------------------------------------------------------------
G------------------------------------------------------------------------------
D-5---------------------------------------------------------------------------
A-3-0xxx---------3xxx----------5-------------------------------------------
E-------1xxx-3xxx----1xxx-3xxx-3-----------------------------------------


[ Tab from: http://www.guitartabs.cc/tabs/r/relient_k/collage_kids_tab_ver_2.html ]
Riff to verse
e-------------------------------------------------------------------------------
B-------------------------------------------------------------------------------
G-9x9x-9/109--12-9x9x-9/109--12-9x9x-9/109--12-910-78--
D------------10--------------10--------------10---------10----------------
A-------------------------------------------------------------------------------
E-------------------------------------------------------------------------------


verse       Twenty grand later something, something...
e---------------------------------------------------------
B---------------------------------------------------------
G---------------------------------------------------------
D-5------2------------------------------------------------
A-3-3xxx-0-0xxx-3-----------------------------------------
E---------------1-1xxx------------------------------------


chourus    Not for me, not for me, call it...
e---------------------------------------------------------
B---------------------------------------------------------
G---------------------------------------------------------
D-5555----------------------------------------------------
A-3333-33-55----------------------------------------------
E------11-33----------------------------------------------

This song is from the cd "two lefts dont make a right...but three do"
By the way, if you dont have this cd.....RUN to the nearest store and get
it. NOW!!...im serious, turn off your computer and go, HURRY. Na im just kidding, but still, you need this cd so get it later.
Oh yea, i almost forgot, if you are all into punk rock, my e-mail is 
"Windwrider@myway.com".
Comments