Relient K - Cojack Chords & Tabs

 

Cojack Chords & Tabs

Relient K Chords & Tabs

Version: 1 Type: Bass Tab 0 ratings
1 star 2 stars 3 stars 4 stars 5 stars
comments

Cojack Bass Tab

Song: Cojack 
Artist: Relient K 
Gotee Records 
Tabbed by Mxpxandrelientkarecool 

Intro- 
G----------------------------------------------------------------------------- 
D----------------------------------------4h7---------------------------------- 
A----------4h5-5-5-5-4h5---------4h7-7-7--------------------------------------
E--5-5-5h7---------------5-5-5h7----------------------------------------------

G----------------------------------------------------------------------------- 
D-------------------------------------4h7------------------------------------- 
A----------4h5-5-5-5-4h5-5-5-5-4h7-7-7----------------------------------x2---- 
E--5-5-5h7--------------------------------------------------------------------

G----------------------------------------------------------------------------- 
D-----------------------------------------------------------------------------
A--------4h555------7755------5555-5555-7777---------------------------------- 
E--555h7-------5555------5555----------------5--------------------------------
[ Tab from: http://www.guitartabs.cc/tabs/r/relient_k/cojack_btab.html ]
G---------------------------------------------------------------+-the 1 part--
D---------------------------------------------------------------+-------------
A--------5-5-5-------7-7-7-------5-5-5-5-5-5-7-7-7--------------+-5-5-5--7-7-7
E--5-5-5-------5-5-5-------5-5-5--------------------------------+-------------

Verse
G----------------------------------------------------------------------------- 
D----------------------------------------------------------------------------- 
A-------------55555555555-----------77777555555------------------------------- 
E-555555555555-----------55555555555------------------------------------------ 

Bridge-
G---------------------------------- 
D---------------------------------- 
A--------5-5-5-5-7-7-7------------- x3
E--5-5-5---------------------------

Chorus 
G---------------------------------------------------+--------------------------
D---------------------------------------------------+-after the first chorus---
A-------------5555555-------777775555---------------+--------------------------
E--5555555-----------5555555------------------------+555555555555555-----------

Thats about it, I think this song is fun 
If you find any mistakes email me at ypolyakov@msn.com
Comments