Relient K - Charles In Charge Chords & Tabs

 

Charles In Charge Chords & Tabs

Relient K Chords & Tabs

Version: 2 Type: Tab 0 ratings
1 star 2 stars 3 stars 4 stars 5 stars
comments

Charles In Charge Tab

E---------------------------------------------------------------------------|
B---------------------------------------------------------------------------|
G---------------------------------------------------------------------------|
D----10----------10----------12----8----------10----------8----7------------|
A--8----8------8----8------8----8----8------8----8------8--8----8-----------|
E---------------------------------------------------------------------------|


E---------------------------------------------------------------|
B---------------------------------------------------------------|
G---------------------------------------------------------------|
D--8----------7------10-----------10----------------------------|
A8----8------8-10------10------10---10------5-----8-------------|
E---------------------------------------------------------------|
[ Tab from: http://www.guitartabs.cc/tabs/r/relient_k/charles_in_charge_tab_ver_2.html ]
Comments