Relient K - Chapstick Chapped Lips And Things Like Chemistry Chords & Tabs

 

Chapstick Chapped Lips And Things Like Chemistry Chords & Tabs

Relient K Chords & Tabs

Version: 4 Type: Tab 0 ratings
1 star 2 stars 3 stars 4 stars 5 stars
comments

Chapstick Chapped Lips And Things Like Chemistry Tab

   
tuning is drop d and all flatted (you dont have to for this song but most of their songs
are, so i just keep it this way) lyrics are included underneath the correct measure, not
the correct notes/chords in that measure. enjoy!

intro/verse 1: guitar 1
eb-------------------------------------------------------------------->
Bb-------------------------------------------------------------------->
Gb-555555555555555555555555555555555555555555555555555555555555555555->
Db-555555555555555555555555555555555555555555555555555555555555555555->
Ab-333333333333333333333333333333333333333333333333333333333333333333->
Db-------------------------------------------------------------------->
ok, so, who doesn't own a cell phone who brought back their permission slip
because I know nobody wants to stay home while the rest of us go out and
make a day of it

verse 1: guitar 2
eb-------------------------------------------------------------------->
Bb-------------------------------------------------------------------->
Gb-555555-444444---------------555555-444444-------------------------->
Db-555555-555555-777777-3333-5-555555-555555-777777-33333-3xxx-------->
Ab-333333-222222-777777-3333-5-333333-222222-777777-33333-3xxx-------->
Db---------------777777-3333-5---------------777777-33333-3xxx-------->
ok, so, who doesn't own a cell phone who brought back their permission slip
because I know nobody wants to stay home while the rest of us go out and
make a day of it

eb-------------------------------------------------------------------->
Bb-------------------------------------------------------------------->
Gb-------------------------------------------------------------------->
Db-3-3-5-5-7-7-10-10-33333-5555-3-3-5-5-7-7-10-10-33333-5555---------->
Ab-3-3-5-5-7-7-10-10-33333-5555-3-3-5-5-7-7-10-10-33333-5555---------->
Db-3-3-5-5-7-7-10-10-33333-5555-3-3-5-5-7-7-10-10-33333-5555---------->
cuz theme parks are so much more fun when the sun's outside and I lost my
phone to the lake beneath the batman ride

verse 2: guitar 1
eb-------------------------------------------------------------------->
Bb-------------------------------------------------------------------->
Gb-555555555555555555555555555555555555555555555555555555555555555555->
Db-555555555555555555555555555555555555555555555555555555555555555555->
Ab-333333333333333333333333333333333333333333333333333333333333333333->
Db-------------------------------------------------------------------->
they're starting something and I don't want to begin it they're looking for
trouble but with me it wont be found

verse 2: guitar 2
eb-------------------------------------------------------------------->
Bb-------------------------------------------------------------------->
Gb-555555-----------555555-----------555555-----------555555---------->
Db-555555-3333-5555-555555-3333-5555-555555-3333-5555-555555-3333-555->
Ab-333333-3333-5555-333333-3333-5555-333333-3333-5555-333333-3333-555->
Db--------3333-5555--------3333-5555--------3333-5555--------3333-555->
they're starting something and I don't want to begin it they're looking for
trouble but with me it wont be found

guitar 1
eb-------------------------------------------------------------------->
Bb-------------------------------------------------------------------->
Gb-5555555555555555555555555555555555555555555552-----------------5~~->
Db-5555555555555555555555555555555555555555555552-----------------5~~->
Ab-3333333333333333333333333333333333333333333330-----------------3~~->
Db-------------------------------------------------------------------->
and I regret that I'm completely out of daytime minutes and so I guess I'll
have to wait a lot till 8 o'clock comes around

guitar 2
eb-------------------------------------------------------------------->
Bb-------------------------------------------------------------------->
Gb-555555-----------555555-----------2---------------------5~~-------->
Db-555555-3333-5555-555555-3333-5555-2-----------3333-5555-5~~-------->
Ab-333333-3333-5555-333333-3333-5555-0-----------3333-5555-3~~-------->
Db--------3333-5555--------3333-5555-------------3333-5555------------>
and I regret that I'm completely out of daytime minutes and so I guess I'll
have to wait a lot till 8 o'clock comes around

verse 3: guitar 3
eb-------------------------------->
Bb-------------------------------->
Gb-555555-444444------------------>
Db-555555-555555-777777-3333-5---->
Ab-333333-222222-777777-3333-5---->
Db---------------777777-3333-5---->
ok, so, who doesn't own a cell phone well I don't need to ask my friends

guitar 1
eb---------------------------------------->
Bb---------------------------------------->
Gb-55555555555555555555555555555555555555->
Db-55555555555555555555555555555555555555->
Ab-33333333333333333333333333333333333333->
Db---------------------------------------->
because I know it was fastened to my jawbone thanks to all those nights and
weekends
[ Tab from: http://www.guitartabs.cc/tabs/r/relient_k/chapstick_chapped_lips_and_things_like_chemistry_tab_ver_4.html ]
eb---------------------------------------->
Bb---------------------------------------->
Gb-555555-444444-------------------------->
Db-555555-555555-777777-33333-3xxx-------->
Ab-333333-222222-777777-33333-3xxx-------->
Db---------------777777-33333-3xxx-------->
because I know it was fastened to my jawbone thanks to all those nights and
weekends

eb-------------------------------------------------------------------->
Bb-------------------------------------------------------------------->
Gb-------------------------------------------------------------------->
Db-3-3-5-5-7-7-10-10-33333-5555-3-3-5-5-7-7-10-10-33333-5555---------->
Ab-3-3-5-5-7-7-10-10-33333-5555-3-3-5-5-7-7-10-10-33333-5555---------->
Db-3-3-5-5-7-7-10-10-33333-5555-3-3-5-5-7-7-10-10-33333-5555---------->
cuz theme parks are so much more fun when the sun's outside and I lost my
phone to the lake beneath the batman ride

repeat verse 2: guitar 1
eb-------------------------------------------------------------------->
Bb-------------------------------------------------------------------->
Gb-555555555555555555555555555555555555555555555555555555555555555555->
Db-555555555555555555555555555555555555555555555555555555555555555555->
Ab-333333333333333333333333333333333333333333333333333333333333333333->
Db-------------------------------------------------------------------->
yeah! they're starting something and I don't want to begin it they're
looking for trouble but with me it wont be found

verse 2: guitar 2
eb-------------------------------------------------------------------->
Bb-------------------------------------------------------------------->
Gb-555555-----------555555-----------555555-----------555555---------->
Db-555555-3333-5555-555555-3333-5555-555555-3333-5555-555555-3333-555->
Ab-333333-3333-5555-333333-3333-5555-333333-3333-5555-333333-3333-555->
Db--------3333-5555--------3333-5555--------3333-5555--------3333-555->
yeah! they're starting something and I don't want to begin it they're
looking for trouble but with me it wont be found

guitar 1
eb-------------------------------------------------------------------->
Bb-------------------------------------------------------------------->
Gb-5555555555555555555555555555555555555555555552-----------------5~~->
Db-5555555555555555555555555555555555555555555552-----------------5~~->
Ab-3333333333333333333333333333333333333333333330-----------------3~~->
Db-------------------------------------------------------------------->
and I regret that I'm completely out of daytime minutes and so I guess I'll
have to wait a lot till 8 o'clock comes around

guitar 2
eb-------------------------------------------------------------------->
Bb-------------------------------------------------------------------->
Gb-555555-----------555555-----------2---------------------5~~-------->
Db-555555-3333-5555-555555-3333-5555-2-----------3333-5555-5~~-------->
Ab-333333-3333-5555-333333-3333-5555-0-----------3333-5555-3~~-------->
Db--------3333-5555--------3333-5555-------------3333-5555------------>
and I regret that I'm completely out of daytime minutes and so I guess I'll
have to wait a lot till 8 o'clock comes around

bridge: (acoustic plays intro guitar 1's part)
when it comes to relationships I'm the dumbest one and I don't mean just
with girls I mean with everyone your illustrations always point out just
what's wrong with me

chorus: guitar 2
eb------------------------>
Bb------------------------>
Gb------------------------>
Db-7--5--3~~--5~~--------->
Ab-7--5--3~~--5~~--------->
Db-7--5--3~~--5~~--------->
its chapstick and chapped lips and things like chemistry

eb-------------------------------------------------------------------->
Bb-------------------------------------------------------------------->
Gb-5555555555555555555555555555555555555555555555555555555555--------->
Db-5555555555555555555555555555555555555555555555555555555555--------->
Ab-3333333333333333333333333333333333333333333333333333333333--------->
Db-------------------------------------------------------------------->
its chapstick and chapped lips and things like its chapstick and chapped
lips and things like its chapstick and chapped lips and things like
chemistry

guitar 2
eb-------------------------------------------------------------------->
Bb-------------------------------------------------------------------->
Gb-555555-----------555555-----------555555--------------------------->
Db-555555-3333-5555-555555-3333-5555-555555-3333-5555-77777-753\------>
Ab-333333-3333-5555-333333-3333-5555-333333-3333-5555-77777-753\------>
Db--------3333-5555--------3333-5555--------3333-5555-77777-753\------>
its chapstick and chapped lips and things like its chapstick and chapped
lips and things like its chapstick and chapped lips and things like
chemistry

fill in: guitar 2
eb----------------------------------------------------->
Bb----------------------------------------------------->
Gb--------55-5~-44-44-5-5---------55-5~-44-44-5-5------>
Db-3-3--3355-5~-55-55-5-5-5-5-3-3355-5~-55-55-5-5-5-5--> repeat
Ab-3-3--3333-3~-22-22-3-3-5-5-3-3333-3~-22-22-3-3-5-5-->
Db-3-3--33----------------5-5-3-33----------------5-5-->

outro: guitar 2 plays fill in
can I relate to you the way you relate to me can you help me out with my
chemistry

guitar 2
eb--------------------------------->
Bb--------------------------------->
Gb-----5-5-4-4-5-5-----5~--4--5~--->
Db-3-3-5-5-5-5-5-5--3~-5~--5--5~--->
Ab-3-3-3-3-2-2-3-3--3~-3~--2--3~--->
Db-3-3--------------3~------------->
I don't want to be perceived the way I am I just want to be perceived the
way I am
Comments