Relient K - Be My Escape Chords & Tabs

 

Be My Escape Chords & Tabs

Relient K Chords & Tabs

Version: 3 Type: Tab 0 ratings
1 star 2 stars 3 stars 4 stars 5 stars
comments

Be My Escape Tab

sup i noticed you needed a correct tab
for this song so here you go because this song
deserves to be played right alright

tuning standard eadgbe                        TABED BY; ES SKATER PUNK

INTRO

e-----------------------------------------------------------------|
B---10-10-10-10----9--9--9--9--9---10-10-10-10---9--9--9--0--0--0-|
G---11-11-11-11---11-11-11-11-11---11-11-11-11--11-11-11-11-11-11-|
D---11-11-11-11---11-11-11-11-11---11-11-11-11--11-11-11-11-11-11-|
A----9--9--9--9----9--9--9--9--9----9--9--9--9---9--9--9--9--9--9-|
E-----------------------------------------------------------------|

2 GUITAR IN INTRO

E----------|
B----------|                  STRUM THESE IN SAME PATTERN A INTRO
G--7-------|                  LISTEN FOR CHANGE
D--7---9---|
A--5---9---|
E------7---|


INTRO BREAK
e------------------------------|
B---10-10----9--9--10-10--9--9-|
G---11-11---11-11--11-11-11-11-|
D---11-11---11-11--11-11-11-11-|    FIRST GUITAR DOES THIS
A----9--9----9--9---9--9--9--9-|
E------------------------------|

E-----------------|
B-----------------|
G-----------------| 2 GUITAR DOES THIS IN ITRO BREAK AT THE SAME
D--11--11--11--9--|  TIMEAFTER THE 1GUITAR HITS HIS FIRST CHORD 2X
A---9---9---9--7--|   2GUITAR HIT HIS FIRST CHORD 1X
E-----------------|


VERSE1

E--------------------------------------|
B--------------------------------------|
G--------------------------------------|
D-----------7----I-11--9-----6-7-------|
A---7--9----5----I--9--7--7--4-5-------|
E---5--7---------I--------5------------|

PRE CHOROUS                          8X     4X     4X

E-------------------             E-------------------|
B-------------------             B-------------------|
G-------------------             G-------------------|
D--11--7------9---------6X       D-----------7-----9-|
A---9--5---7--7-----             A----9-I----5-----7-|
E----------5--------             E----7--------------|


CHORUS

E-----------------------------------------------------|
B-----------------------------------------------------|
G-----------------------------------------------------|
D------9-9-7-7-9-9-----9-9-7-7-9-----X-X-X-X----------|
A-7-7--7-7-5-5-7-7-7-7-7-7-5-5-7-----X-X-X-X----------|
E-5-5--------------5-5---------------X-X-X-X----------|

E-----------------------------------------------------|
B-----------------------------------------------------|
G-----------------------------------------------------|
D------9-9-7-7-9-9------11-9-7-9----------------------|
A-7-7--7-7-5-5-7-7-------9-7-5-7----------------------|
E-5-5-------------------------------------------------|

VERSE

E----------------------------|
B----------------------------|
G----------------------------|
D---------7-----------9------|2X
A----------------------------|
---5---5--------7--7---------|


E----------------------|
B----------------------|
G----------------------|
D--11--7------9--------|1X
A---9--5---7--7--------|
E----------5-----------|

PRE CHOROUS                          8X     4X     4X
[ Tab from: http://www.guitartabs.cc/tabs/r/relient_k/be_my_escape_tab_ver_3.html ]
E-------------------             E-------------------|
B-------------------             B-------------------|
G-------------------             G-------------------|
D--11--7------9---------6X       D-----------7-----9-|
A---9--5---7--7-----             A----9-I----5-----7-|
E----------5--------             E----7--------------|

CHORUS

E-----------------------------------------------------|
B-----------------------------------------------------|
G-----------------------------------------------------|
D------9-9-7-7-9-9-----9-9-7-7-9-----X-X-X-X----------|
A-7-7--7-7-5-5-7-7-7-7-7-7-5-5-7-----X-X-X-X----------|
E-5-5--------------5-5---------------X-X-X-X----------|

E-----------------------------------------------------|
B-----------------------------------------------------|
G-----------------------------------------------------|
D------9-9-7-7-9-9------11-9-7-9----------------------|
A-7-7--7-7-5-5-7-7-------9-7-5-7----------------------|
E-5-5-------------------------------------------------|

VERSE
e-----------------------------------------------------------------|
B---10-10-10-10----9--9--9--9--9---10-10-10-10---9--9--9--0--0--0-|
G---11-11-11-11---11-11-11-11-11---11-11-11-11--11-11-11-11-11-11-|
D---11-11-11-11---11-11-11-11-11---11-11-11-11--11-11-11-11-11-11-|
A----9--9--9--9----9--9--9--9--9----9--9--9--9---9--9--9--9--9--9-|
E-----------------------------------------------------------------|


BASS PLAYS WITH DRUMS
THEN YOU DO THIS LISTEN FOR TOMEING
e------------------------------|
B---10-10----9--9--10-10--9--9-|
G---11-11---11-11--11-11-11-11-|
D---11-11---11-11--11-11-11-11-|    FIRST GUITAR DOES THIS
A----9--9----9--9---9--9--9--9-|
E------------------------------|

E------------------------------------|
B------------------------------------|
G------------------------------------|   THIS PARTS  JUST LIKE THE INTRO
D--11--11--11--9---------------------|   EXCEPT THE SECOND GUITAR DOESNT
A---9---9---9--7---------------------|  START PLAYING W/ THE FIRST GUITAR
E----------------- UNTIL ABOUT 10-15-| SECONDS LATER LISTEN
                     FOR EXACT TIMEING YOULL GET IT RIGHT

E-----------|
B-----------|
G-----------|
D--7--------|STRUM 7X IN A ROW
A--7--------|  PALM MUTE IT
E--5--------|
   *

CHORUS
E----------|
B----------|
G----------|
D--9---7---|
A--9---7---|
E--7---5---|

E-------------------|
B-------------------|
G-------------------|
D--7-------STRUM 17-|X IN A ROW
A--7----------------|  PALM MUTE IT
E--5----------------|
   *


E-----------------------------------------------------|
B-----------------------------------------------------|
G-----------------------------------------------------|
D------9-9-7-7-9-9-----9-9-7-7-9-----X-X-X-X----------|
A-7-7--7-7-5-5-7-7-7-7-7-7-5-5-7-----X-X-X-X----------|
E-5-5--------------5-5---------------X-X-X-X----------|

E-----------------------------------------------------|
B-----------------------------------------------------|
G-----------------------------------------------------|
D------9-9-7-7-9-9------11-9-7-9----------------------|
A-7-7--7-7-5-5-7-7-------9-7-5-7----------------------|
E-5-5-------------------------------------------------|

THERE IT IS  HOPE YOU HVE A GOOD TIME LEARNING IT
Comments