Relient K - Be My Escape Chords & Tabs

 

Be My Escape Chords & Tabs

Relient K Chords & Tabs

Version: 3 Type: Bass Tab

Be My Escape Bass Tab

Be my escape - Relient K

Tabbed By: Drew Fish
e-mail: microfish89@yahoo.com

Tuning: Standard

Intro
G|------------------------------|
D|------------------------------|
A|--5-5---------5----------0-5--|
E|------2-2-4-5------2-2-4------|

G|------------------------------------------|
D|------------------------------------------|
A|------0----44-55555555-00000000-----------|
E|--222---22----------------------00000000--|

Verse 1
...This one last...
G|---------------------|
D|---------------------|
A|--0-2-5--9-7--2-4-5--|
E|---------------------|

Pre-Chorus
And Iíve been...
G|-----------|			G|---------|
D|--4-0---2--|			D|----0-2--|
A|------0----|Repeat x3		A|--2------|
E|-----------|			E|---------|

Chorus
Iíve gotta get...			  Ending 1		  Ending 2	
G|-----------|			G|-------------|	G|-----------|
D|----2-0-2--|			D|--4-2---2----|	D|--4-2-0-2--|
A|--0--------|Repeat x3		A|------2---0--|	A|-----------|
E|-----------|			E|-------------|	E|-----------|
[ Tab from: http://www.guitartabs.cc/tabs/r/relient_k/be_my_escape_btab_ver_3.html ]
Verse 2
Iíve given up...
G|----------------------------------|
D|----------------------------------|
A|--000--222--555--555--9-7--2-4-5--|Repeat x2
E|----------------------------------|

(Pre-Chorus)
(Chorus)



Bridge
G|-----------|     G|-------------------------------------------|
D|-----------|     D|-------------------------------------------|
A|-----------|     A|------0----44-55555555-00000000-2222222-0--|Repeat x2
E|--2(fade)--|     E|--222---22---------------------------------|

Bridge Ending 2 (See note below)
G|------------|
D|------------|
A|--22222222--|
E|------------|

...Dying to get out...
G|--------------------------|
D|--4-0----------0000-2222--|
A|------22222222------------|
E|--------------------------|

(Chorus)


Order
Intro
Verse 1
Pre-Chorus
Chorus + Ending 1
Verse 2
Pre-Chorus
Chorus + Ending 2
Bridge
Chorus + Ending 2


Note: When Repeating the bridge for the second time, leave out the last ďAĒ
(String 2, open) and follow through to the 2nd Ending.

Standard 4 string tuning