Relient K - Be My Escape Chords & Tabs

 

Be My Escape Chords & Tabs

Relient K Chords & Tabs

Version: 1 Type: Bass Tab 0 ratings
1 star 2 stars 3 stars 4 stars 5 stars
comments

Be My Escape Bass Tab

----------------------------------------------------------------------------
		       Be My Escape - Relient k
----------------------------------------------------------------------------

Tuning:GDAE

Intro
G|--------------------|
D|--0~-------------0~-|
A|---------1~---------|
E|--------------------|
[ Tab from: http://www.guitartabs.cc/tabs/r/relient_k/be_my_escape_btab.html ]
G|------------------------------|
D|------------------------------|
A|------0----44-5555--7777-5555-|
E|-111----11--------------------|
Verse
G|----------------------------------------|
D|----------------------------------------|
A|-0~----3~---5~---9~---7~---0~---3~---5~-|
E|----------------------------------------|
Pre-Chorus
G|----------------|        G|----------------|
D|----------------|        D|----------------|
A|-9-9--5--0-0--7-|x3      A|--0---5---7-----|      
E|----------------|        E|----------------|
Chorus
G|------------|    G|--------------------------|
D|----2--0--2-|    D|--------------------------|
A|-0----------|x3  A|--4----2----------2-----4-|
E|------------|    E|-------------0------------|

Verse-x1(Palm muted)
Pre-Chorus-x1
Chorus-x1

Bridge
G|-----|
D|-----|
A|--0~-|
E|-----|

G|----------------------------------------------|
D|----------------------------------------------|
A|------0----44-5555--7777-5555---0---5---7-----|
E|-111----11------------------------------------|

Chorusx1

| ~  Let it ring
============================================================================
Comments