Relient K - At Moments I Feel Faint Chords & Tabs

 

At Moments I Feel Faint Chords & Tabs

Relient K Chords & Tabs

Version: 1 Type: Tab 0 ratings
1 star 2 stars 3 stars 4 stars 5 stars
comments

At Moments I Feel Faint Tab

 Intro-Verse-Chorus
E----0--------0--------0--------0-----------|
B----0--------2--------0--------0-----------|
D----1--------2--------6--------4-----------|
G----2--------0--------6--------4-----------|
A----2--------0--------4--------2-----------|
E----0--------x--------x--------x-----------|
[ Tab from: http://www.guitartabs.cc/tabs/r/relient_k/at_moments_i_feel_faint_tab.html ]
 Bridge
    Think I can't
E----0-0---0-0---0-0-0-0-0-0-------|
B----0-0---2-2---0-0-0-0-0-0-------|
D----1-1---2-2---6-6-6-4-4-4-------|
G----2-2---0-0---6-6-6-4-4-4-------|
A----2-2---0-0---4-4-4-2-2-2-------|
E----0-0---x-x---x-x-x-x-x-x-------|

E---0-0-0-0-0-0-0-0-0-0-0-0-0-0-0--|
B---0-0-0-0-0-0-0-0-2-2-0-0-0-0-0--|
D---3-3-3-3-3-3-1-1-2-2-6-6-4-4-4--|
G---4-4-4-4-4-4-2-2-0-0-6-6-4-4-4--|
A---4-4-4-4-4-4-2-2-0-0-4-4-2-2-2--|
E---1-1-1-1-1-1-0-0-x-x-x-x-x-x-x--|


X= dont play string
Comments