Relient K - Apathetic Way To Be Chords & Tabs

 

Apathetic Way To Be Chords & Tabs

Relient K Chords & Tabs

Version: 1 Type: Tab 0 ratings
1 star 2 stars 3 stars 4 stars 5 stars
comments

Apathetic Way To Be Tab

Apathetic Way To Be - Relient K

This is the new b-side song, found on the vinyl
record of MMHMM. If you can't afford to get the
vinyl, go to purevolume.com and check it out there.
I personally think this song should've been on MMHMM.


Note:
I think you can play this in both standard tuning
and tuned half-step down (move chords up half-step).
I only have some parts to it, and I'm trying to figure
out the rest, please feel free to add to this!

Verse
e-----------------------|
b-----------------------|
g-------6666------------|
D--444--6666--888--6666-|
A--444--4444--888--6666-|
E--222--------666--4444-|
 PM***	****  ***  ****
	(listen for open C# and A# on verses)
[ Tab from: http://www.guitartabs.cc/tabs/r/relient_k/apathetic_way_to_be_tab.html ]
Verse (Part 2)
e-----------------------------|
b-----------------------------|
g-------6666------------------|
D--444--6666--------888-8-----|
A--444--4444--------888-8-----|
E--222--------------666-6-----|
 PM***  ****        ***  (listen for timing on open A#)


Chorus
e-----------------------|
b-----------------------|
g-----66----------------|
D--4--66--888--66-------|
A--4--44--888--66-------|
E--2------666--44-------|(x3)

Chorus (Part 2)
e---------------------|
b---------------------|
g-------66------------|
D--4----66-------8~---|
A--4----44-------8~---|
E--2-------------6~---|


Bride (1st part)
   Yeah, I'm bein apathetic's..
e-----------------------|
b-----------------------|
g--6--------------5-----|
D--6--------------5-----|
A--4--------------3-----|
E-----------------------|

...a pathetic way to be
e-----------------------|
b-----------------------|
g----3------------------|
D----3---------------4--|
A----1---------------4--|
E--------------------2--|

Well, that's all I can offer for now! I'm tryin to figure out the rest, dont
worry!
Comments