Relient K - 12 Days Of Christmas Chords & Tabs

 

12 Days Of Christmas Chords & Tabs

Relient K Chords & Tabs

Version: 1 Type: Bass Tab 0 ratings
1 star 2 stars 3 stars 4 stars 5 stars
comments

12 Days Of Christmas Bass Tab

-----------------------------------------------------------------------------
                            12 Days Of Christmas
-----------------------------------------------------------------------------

Tuning: Standard

Verses
(Start at :11)

2nd Day of Christmas!
|------------------|
|------------------|
|----6-7----2(x8)--|
|-2-------2--------|

3rd Day of Christmas!
|------------------------------|
|------------------------------|
|-2(x16)---------6-7----2-(x8)-|
|---------2(x14)------2--------|

4th Day of Christmas!
|------------------------------|
|------------------------------|
|-2(x16)---------6-7----2-(x8)-|
|---------2(x20)------2--------|

5th Day of Christmas!
|----------------------------------------------------------|
|----------------------------------------------------------|
|-2(x16)-2~-4~---------2(x6)-----------------6-7----2-(x8)-|
|---------------2(x16)--------0(x6)-1(x4)-2-------2--------|

Chorus
|----------------------------------------------|
|----------------------------------------------|
|-2(x8)----------------------2(x8)-------------|
|--------0(x8)-4(x8)-2(x8)--------0(x8)-2(x16)-|

More Verses

6th Day of Christmas!
|-------------------------------------------------------------------|
|-------------------------------------------------------------------|
|-2(x16)--------2~-4~---------2(x6)-------------------6-7----2-(x8)-|
|---------2(x6)-------2(x16)--------0(x6)-1(x4)-2(x4)------2--------|
[ Tab from: http://www.guitartabs.cc/tabs/r/relient_k/12_days_of_christmas_btab.html ]
7th Day of Christmas!
|-------------------------------------------|
|-------------------------------------------|
|-2~--2(x6)-------------------6-7----2-(x8)-|
|-----------0(x6)-1(x4)-2(x4)------2--------|

8th Day of Christmas!
|---------------------------------------------------------------------|
|---------------------------------------------------------------------|
|-2(x8)--------2(x4)-4(x4)---------2(x4)-2\--------------6-7----2(x8)-|
|--------2(x9)---------------2(x8)------------0(x4)--1-2------2-------|

9th Day of Christmas!
|--------------------------------------------------------------------------|
|--------------------------------------------------------------------------|
|-2(x16)---------2(x8)-4(x8)--------2(x6)--------------------6-7----2-(x8)-|
|---------2(x24)-------------2(x16)--------0(x6)-1(x4)-2(x4)------2--------|

Chorus

|----------------------------------------------|
|----------------------------------------------|
|-2(x8)----------------------2(x8)-------------|
|--------0(x8)-4(x8)-2(x8)--------0(x8)-2(x12)-|

More Verses

10th Day of Christmas! (KEY CHANGE)
|--------------------------------------------------|
|--------------------------------------------------|
|-3--------3~-5~--------3-------------7-8----3(x8)-|
|----3(x5)-------3(x16)----1-1--2--3-------3-------|

11th Day of Christmas!
|---------------------------------------|
|---------------------------------------|
|-3(x6)-------------------7-8----3-(x8)-|
|-------1(x6)-2(x4)-3(x4)------3--------|

12th Day of Christmas!
|-----------------------------------------------|
|-----------------------------------------------|
|-3(x16)-----3~-5~--------3-----------7-8----3~-|
|--------3~--------3(x16)---1-1--2--3------3----|
Comments