Relative Ash - Pout Chords & Tabs

 

Pout Chords & Tabs

Relative Ash Chords & Tabs

Version: 1 Type: Tab 0 ratings
1 star 2 stars 3 stars 4 stars 5 stars
comments

Pout Tab

   
Song: Pout
Artist: Relative Ash
Album: Our Time With You...
Tabed by: Jake (powerdogg90@hotmail.com)
Tuning: Drop D (D A D G B E)


This intro is kool but i put it for guitar but the sound they get 
is mostly helped by bass.

Intro:

|--------------------------------------------------------------|
|--------------------------------------------------------------|
|-7-------------------------------------7----------------------|
|-7----------------(p)6-----------------7--------------(p)6----|
|-5-------------------5-----------------5-----------------5----|
|-0------------------(0)----------------0----------------------|


Do this a whole bunch palm muted.
|---------------------------------------|
|---------------------------------------|
|---------------------------------------|
|---------------------------------------|
|---------------------------------------|
|-0-0-0--0--0-0-0--0--0-0-0--0--0--0--0-|


Then:

|-----------------------------------------------------------------|
|-----------------------------------------------------------------|
|-----------------------------------------------------------------|
|-3--3-6--6-11--11-5--5-3--3-6--6-11--11-5--5-3--3-6--6-11--11-5--|
|-3--3-6--6-11--11-5--5-3--3-6--6-11--11-5--5-3--3-6--6-11--11-5--|
|-3--3-6--6-11--11-5--5-3--3-6--6-11--11-5--5-3--3-6--6-11--11-5--|

continued:
[ Tab from: http://www.guitartabs.cc/tabs/r/relative_ash/pout_tab.html ]
|-----------------------------------------------------------------|
|-----------------------------------------------------------------|
|-----------------------------------------------------------------|
|-5-3--3-6--6-5--5-5-5-5--5--5-5-5-5--5--5-5-5-5--5--5-5-5-5--5/6-|
|-5-3--3-6--6-5--5-5-5-5--5--5-5-5-5--5--5-5-5-5--5--5-5-5-5--5/6-|
|-5-3--3-6--6-5--5-5-5-5--5--5-5-5-5--5--5-5-5-5--5--5-5-5-5--5/6-|

Damn this is taking a long time but still continued:

|------------------------------------------------|
|------------------------------------------------|
|------------------------------------------------|
|-6-6-6-6--6--6-6-6-6--6--6-6-6-6--6--6-6-6-6-\\\|
|-6-6-6-6--6--6-6-6-6--6--6-6-6-6--6--6-6-6-6-\\\|
|-6-6-6-6--6--6-6-6-6--6--6-6-6-6--6--6-6-6-6-\\\|

Then:

|---------------------------------|
|---------------------------------|
|---------------------------------|
|----------------------------2/3--|
|----------------------------2/3--|
|-0-0-0-0-0--00000--0-0-0-0--2/3--|

Then this twice:

|-----------------------|
|-----------------------|
|-----------------------|
|-----------------------|
|-----3-----------------|
|-0-0---3-2-1--0-1h2p1--|

then reaLLy heavy:

|-----------------------|
|-----------------------|
|-----5-----------------|
|-0-0-5-3-2-1--0-1h2p1--|
|-0-0-3-3-2-1--0-1h2p1--|
|-0-0---3-2-1--0-1h2p1--|


ThaTS ABOUT IT. ANY QUESTIONS e-MAIL ME. iTS ALL RIGHT SO DONT 
TRY AND MAKE YOUR SELF FEEL SMART YOU BUNCH OF ASS HOLES.
Comments