Relative Ash - Bounce Chords & Tabs

 

Bounce Chords & Tabs

Relative Ash Chords & Tabs

Version: 1 Type: Tab 0 ratings
1 star 2 stars 3 stars 4 stars 5 stars
comments

Bounce Tab

   
tabbed by: bob sheriff
e-mail Bglassjar@aol.com
Tuning:d a d g b e

e|---------------------------------------------------------------------------|
B|---------------------------------------------------------------------------|
G|---------------------------------------------------------------------------|
D|-2--2-------32-----2--2---32-----------------------------------------------|
A|---1--1-0-----1------1-1-0--1----------------------------------------------|
E|---------------------------------------------------------------------------|
[ Tab from: http://www.guitartabs.cc/tabs/r/relative_ash/bounce_tab.html ]
e|---------------------------------------------------------------------------|
B|---------------------------------------------------------------------------|
G|---------------------------------------------------------------------------|
D|---7-7-6----7-7-6--0----7-7-6---7-7-6-0---------------------------------------
A|---7-7-6----7-7-6--0----7-7-6---7-7-6-0---------------------------------------
E|---7-7-6----7-7-6--0----7-7-6---7-7-6-0------------------------------------

                  thats it an easy song fun to play and also good finger
exersize. try playing with a drum machine increasing bpm's as hihg as you can
see if your good enough to play it smothly at 240 bpm's............I didnt think
so keep trying
Comments