Relative Ash - 5 Chords & Tabs

 

5 Chords & Tabs

Relative Ash Chords & Tabs

Version: 1 Type: Tab 0 ratings
1 star 2 stars 3 stars 4 stars 5 stars
comments

5 Tab

   
Song: 5:30
Artist: Relative Ash
Album: Our Time With You...
Tabed by: Jake (powerdogg90@hotmail.com)
Tuning: Drop D (D A D G B e)

This song way too kool for everybody not to know. 
so learn it no matter what.
[ Tab from: http://www.guitartabs.cc/tabs/r/relative_ash/5_tab.html ]
|-------------------------------------|
|-------------------------------------|
|-------------------------------------|
|-------------------------------------|
|--5-0-5-0---6-7-6---5-0-5-0---6-7-6--|
|----------6-----------------6--------|


and:

|----------------------------|
|----------------------------|
|----------------------------|
|-6--6-5---------6--6-5--0---|
|-6--6-5--6-7-6--6--6-5--0---|
|-6--6-5---------6--6-5--0---|


thats all there is to that song and it is way kool
Comments