Rehab - Sittin At A Bar Chords & Tabs

 

Sittin At A Bar Chords & Tabs

Rehab Chords & Tabs

Version: 1 Type: Tab 0 ratings
1 star 2 stars 3 stars 4 stars 5 stars
comments

Sittin At A Bar Tab

   
Title: Bartender (Sitting at a Bar)
Artist: Rehab
 
Instrument: Guitar

Tabbed by: Jason Patterson (Cyaphobia5@hotmail.com)

Tuning: Standard (E A D G B E)
You may want to put a Capo on the 2nd fret to make it easy.  
Questions or comments? E-mail me.

Key: ^ = real fast hammer on
    PM = Palm Mute
    () = let ring
|--------------------------------------------------------5-5-5-5---||
|----------5---5-5----------------4---4-4----------------3-2-3-2---||
|----------4^6-4-4^6--6--8--6--4--4^6-4-4^6-----4--2-----2-2-2-2---||
|----2--6------------------------------------6--------2----2---2---||
|------------------------------------------------------------------||
|------------------------------------------------------------------||
[ Tab from: http://www.guitartabs.cc/tabs/r/rehab/sittin_at_a_bar_tab.html ]
   PM
|------------------------------------------------------------------||
|------------------------------------------------------------------||
|-----------------4-4---4-4----------------------------------------||
|--2-2------------4-4^6-4-4^(6)------------------------------------||
|--2--------2------------------------------------------------------||
|------------------------------------------------------------------||

                               OR                

If you don't have a capo you can tune the guitar up a full step 
and play it like this

|--------------------------------------------------------3-3-3-3---||
|----------3---3-3----------------2---2-2----------------1-0-1-0---||
|----------2^4-2-2^4--4--6--4--2--2^4-2-2^4-----2--0-----0-0-0-0---||
|----0--4------------------------------------4--------0----0---0---||
|------------------------------------------------------------------||
|------------------------------------------------------------------||

   PM
|------------------------------------------------------------------||
|------------------------------------------------------------------||
|-----------------2-2---2-2----------------------------------------||
|--0-0------------2-2^4-2-2^(4)------------------------------------||
|--0--------0------------------------------------------------------||
|------------------------------------------------------------------||
Comments