Regurgitator - I Zombie Chords & Tabs

 

I Zombie Chords & Tabs

Regurgitator Chords & Tabs

Version: 1 Type: Tab 0 ratings
1 star 2 stars 3 stars 4 stars 5 stars
comments

I Zombie Tab

   
----------------------------------------------------------------------------
			     I, Zombie - Regurgitator
----------------------------------------------------------------------------

Tuning: standard

Intro/verse

e|-----------------------------------------|-----------------------|
B|-----------------------------------------|-----------------------|
G|--------5---7--x--7---5--x---------------|-----------------------|
D|---7-x--5---7--x--7---5--x---7----5---7--|---7-7--5--7-----------|
A|---7-x--3---5--x--5---3--x---7----5---7--|---7-7--5--7-----------|
E|---5-x-----------------------5----3---5--|---5-5--3--5-----------|

pre chorus fig 1

e|------------------------------------------------------------------------|
B|------------------------------------------------------------------------|
G|---5-5-5-5------7-7-7-7-------------------------------------------------|
D|---5-5-5-5-ect--7-7-7-7--ect---7-7-7-7-7----5b---7-7-7-7-7----5b--------|
A|---3-3-3-3------5-5-5-5--------7-7-7-7-7----5b---7-7-7-7-7----5b--------|
E|-------------------------------5-5-5-5-5----3b---5-5-5-5-5----3b--------|

pre chorus fig 2
[ Tab from: http://www.guitartabs.cc/tabs/r/regurgitator/i_zombie_tab.html ]
e|---------------------------------------------------------------------------|
B|---------------------------------------------------------------------------|
G|---5-5-5-5------7-7-7-7------9-9-9-----------------------------------------|
D|---5-5-5-5-ect--7-7-7-7-ect--9-9-9--ect------------------------------------|
A|---3-3-3-3------5-5-5-5------7-7-7-----------------------------------------|
E|---------------------------------------------------------------------------|

chorus

e|---------------------------------------------------------------------------|
B|---------------------------------------------------------------------------|
G|---------------------5-5-5--7-7-7------------------------------------------|
D|---5--7--5--7--7-----5-5-5--7-7-7------------------------------------------|
A|---5--7--5--7--7-x3--3-3-3--5-5-5------------------------------------------|
E|---3--5--3--5--5-----------------------------------------------------------|

outro

e|---------------------------------------------------------------------------|
B|---------------------------------------------------------------------------|
G|----x-x-x-7-7--5------x-x-x--7-7--5----------------------------------------|
D|----x-x-x-7-7--5-7-7--x-x-x--7-7--5-7-7------------------------------------|
A|----x-x-x-5-5--3-7-7--x-x-x--5-5--3-7-7------------------------------------|
E|----x-x-x--------5-5--x-x-x---------5-5------------------------------------|

ok, so thats it...i dont know if u could do another version with drop-d tuning but ill 
that out n keep ya posted thanx alot.

ne questions...majedissa2@hotmail.com


| /  slide up
| \  slide down
| h  hammer-on
| p  pull-off
| ~  vibrato
| +  harmonic
| x  Mute note
===============================================================================
Comments