Regurgitator - Fat Cop Chords & Tabs

 

Fat Cop Chords & Tabs

Regurgitator Chords & Tabs

Version: 2 Type: Tab 0 ratings
1 star 2 stars 3 stars 4 stars 5 stars
comments

Fat Cop Tab

Regurgitator, Fat Cop.
 Tabbed by Cara Griffiths, hex_hectress@hotmail.com.
  
Standard Tuning. 

Intro and Verse

yeah, yeah, yeah, yeah, (clean)

e-----------------------------------------------------
b-----------------------------------------------------
g-----------------------------------------------------
d-----------------------------------------------------
a--2-4-4-4--5---2--2-5-5-5--7-7---2--7-7-5-5---2-4-5-5
e--0-2-2-2--3---4--4-3-3-3--5-5---4--5-5-3-3---4-6-3-3

Pre Chorus

Oh my god just jump back.......
  
Strings should me muted
[ Tab from: http://www.guitartabs.cc/tabs/r/regurgitator/fat_cop_tab_ver_2.html ]
e-----------------------------------------------------
b-----------------------------------------------------
g-----------------------------------------------------
d-----------------------------------------------------
a--9-9-9-9-9--9\\7--7--6------------------------------
e--7-7-7-7-7--7\\5--5--4------------------------------
 
Chorus

Fat cop hey..... (clean)

e-----------------------------------------------------
b--7--7-----------------------------------------------
g--9--8--12--14---------------------------------------
d--9--9--12--14---------------------------------------
a--7--7--10--12---------------------------------------
e--7--7--10--12---------------------------------------


There we go that pretty much it, i could tell you how many times to play the chords in the chorus but you would just get confused! Sound great with a bit of distortion. This is the song of 2001 ROCK ON!

'later days 
:: Ultimate Guitar Archive :: 
http://www.ultimate-guitar.com 



Comments